  0
SECTION
  2
HEADER
  9
$ACADVER
  1
AC1024
  9
$ACADMAINTVER
 70
   205
  9
$DWGCODEPAGE
  3
ANSI_1250
  9
$INSBASE
 10
0.0
 20
0.0
 30
0.0
  9
$EXTMIN
 10
1.000000000000000E+20
 20
1.000000000000000E+20
 30
1.000000000000000E+20
  9
$EXTMAX
 10
-1.000000000000000E+20
 20
-1.000000000000000E+20
 30
-1.000000000000000E+20
  9
$LIMMIN
 10
0.0
 20
0.0
  9
$LIMMAX
 10
12.0
 20
9.0
  9
$ORTHOMODE
 70
     0
  9
$REGENMODE
 70
     1
  9
$FILLMODE
 70
     1
  9
$QTEXTMODE
 70
     0
  9
$MIRRTEXT
 70
     1
  9
$LTSCALE
 40
1.0
  9
$ATTMODE
 70
     1
  9
$TEXTSIZE
 40
0.2
  9
$TRACEWID
 40
0.05
  9
$TEXTSTYLE
  7
Standard
  9
$CLAYER
  8
0
  9
$CELTYPE
  6
ByLayer
  9
$CECOLOR
 62
   256
  9
$CELTSCALE
 40
1.0
  9
$DISPSILH
 70
     0
  9
$DIMSCALE
 40
1.0
  9
$DIMASZ
 40
0.18
  9
$DIMEXO
 40
0.0625
  9
$DIMDLI
 40
0.38
  9
$DIMRND
 40
0.0
  9
$DIMDLE
 40
0.0
  9
$DIMEXE
 40
0.18
  9
$DIMTP
 40
0.0
  9
$DIMTM
 40
0.0
  9
$DIMTXT
 40
0.18
  9
$DIMCEN
 40
0.09
  9
$DIMTSZ
 40
0.0
  9
$DIMTOL
 70
     0
  9
$DIMLIM
 70
     0
  9
$DIMTIH
 70
     1
  9
$DIMTOH
 70
     1
  9
$DIMSE1
 70
     0
  9
$DIMSE2
 70
     0
  9
$DIMTAD
 70
     0
  9
$DIMZIN
 70
     0
  9
$DIMBLK
  1

  9
$DIMASO
 70
     1
  9
$DIMSHO
 70
     1
  9
$DIMPOST
  1

  9
$DIMAPOST
  1

  9
$DIMALT
 70
     0
  9
$DIMALTD
 70
     2
  9
$DIMALTF
 40
25.4
  9
$DIMLFAC
 40
1.0
  9
$DIMTOFL
 70
     0
  9
$DIMTVP
 40
0.0
  9
$DIMTIX
 70
     0
  9
$DIMSOXD
 70
     0
  9
$DIMSAH
 70
     0
  9
$DIMBLK1
  1

  9
$DIMBLK2
  1

  9
$DIMSTYLE
  2
Standard
  9
$DIMCLRD
 70
     0
  9
$DIMCLRE
 70
     0
  9
$DIMCLRT
 70
     0
  9
$DIMTFAC
 40
1.0
  9
$DIMGAP
 40
0.09
  9
$DIMJUST
 70
     0
  9
$DIMSD1
 70
     0
  9
$DIMSD2
 70
     0
  9
$DIMTOLJ
 70
     1
  9
$DIMTZIN
 70
     0
  9
$DIMALTZ
 70
     0
  9
$DIMALTTZ
 70
     0
  9
$DIMUPT
 70
     0
  9
$DIMDEC
 70
     4
  9
$DIMTDEC
 70
     4
  9
$DIMALTU
 70
     2
  9
$DIMALTTD
 70
     2
  9
$DIMTXSTY
  7
Standard
  9
$DIMAUNIT
 70
     0
  9
$DIMADEC
 70
     0
  9
$DIMALTRND
 40
0.0
  9
$DIMAZIN
 70
     0
  9
$DIMDSEP
 70
    46
  9
$DIMATFIT
 70
     3
  9
$DIMFRAC
 70
     0
  9
$DIMLDRBLK
  1

  9
$DIMLUNIT
 70
     2
  9
$DIMLWD
 70
    -2
  9
$DIMLWE
 70
    -2
  9
$DIMTMOVE
 70
     0
  9
$DIMFXL
 40
1.0
  9
$DIMFXLON
 70
     0
  9
$DIMJOGANG
 40
0.7853981633974483
  9
$DIMTFILL
 70
     0
  9
$DIMTFILLCLR
 70
     0
  9
$DIMARCSYM
 70
     0
  9
$DIMLTYPE
  6

  9
$DIMLTEX1
  6

  9
$DIMLTEX2
  6

  9
$DIMTXTDIRECTION
 70
     0
  9
$LUNITS
 70
     2
  9
$LUPREC
 70
     4
  9
$SKETCHINC
 40
0.1
  9
$FILLETRAD
 40
0.5
  9
$AUNITS
 70
     0
  9
$AUPREC
 70
     0
  9
$MENU
  1
.
  9
$ELEVATION
 40
0.0
  9
$PELEVATION
 40
0.0
  9
$THICKNESS
 40
0.0
  9
$LIMCHECK
 70
     0
  9
$CHAMFERA
 40
0.5
  9
$CHAMFERB
 40
0.5
  9
$CHAMFERC
 40
1.0
  9
$CHAMFERD
 40
0.0
  9
$SKPOLY
 70
     0
  9
$TDCREATE
 40
2451380.888765729
  9
$TDUCREATE
 40
2451380.805432396
  9
$TDUPDATE
 40
2451380.924513889
  9
$TDUUPDATE
 40
2451380.841180556
  9
$TDINDWG
 40
0.0075615741
  9
$TDUSRTIMER
 40
0.0075525347
  9
$USRTIMER
 70
     1
  9
$ANGBASE
 50
0.0
  9
$ANGDIR
 70
     0
  9
$PDMODE
 70
     0
  9
$PDSIZE
 40
0.0
  9
$PLINEWID
 40
0.0
  9
$SPLFRAME
 70
     0
  9
$SPLINETYPE
 70
     6
  9
$SPLINESEGS
 70
     8
  9
$HANDSEED
  5
13D
  9
$SURFTAB1
 70
     6
  9
$SURFTAB2
 70
     6
  9
$SURFTYPE
 70
     6
  9
$SURFU
 70
     6
  9
$SURFV
 70
     6
  9
$UCSBASE
  2

  9
$UCSNAME
  2

  9
$UCSORG
 10
0.0
 20
0.0
 30
0.0
  9
$UCSXDIR
 10
1.0
 20
0.0
 30
0.0
  9
$UCSYDIR
 10
0.0
 20
1.0
 30
0.0
  9
$UCSORTHOREF
  2

  9
$UCSORTHOVIEW
 70
     0
  9
$UCSORGTOP
 10
0.0
 20
0.0
 30
0.0
  9
$UCSORGBOTTOM
 10
0.0
 20
0.0
 30
0.0
  9
$UCSORGLEFT
 10
0.0
 20
0.0
 30
0.0
  9
$UCSORGRIGHT
 10
0.0
 20
0.0
 30
0.0
  9
$UCSORGFRONT
 10
0.0
 20
0.0
 30
0.0
  9
$UCSORGBACK
 10
0.0
 20
0.0
 30
0.0
  9
$PUCSBASE
  2

  9
$PUCSNAME
  2

  9
$PUCSORG
 10
0.0
 20
0.0
 30
0.0
  9
$PUCSXDIR
 10
1.0
 20
0.0
 30
0.0
  9
$PUCSYDIR
 10
0.0
 20
1.0
 30
0.0
  9
$PUCSORTHOREF
  2

  9
$PUCSORTHOVIEW
 70
     0
  9
$PUCSORGTOP
 10
0.0
 20
0.0
 30
0.0
  9
$PUCSORGBOTTOM
 10
0.0
 20
0.0
 30
0.0
  9
$PUCSORGLEFT
 10
0.0
 20
0.0
 30
0.0
  9
$PUCSORGRIGHT
 10
0.0
 20
0.0
 30
0.0
  9
$PUCSORGFRONT
 10
0.0
 20
0.0
 30
0.0
  9
$PUCSORGBACK
 10
0.0
 20
0.0
 30
0.0
  9
$USERI1
 70
     0
  9
$USERI2
 70
     0
  9
$USERI3
 70
     0
  9
$USERI4
 70
     0
  9
$USERI5
 70
     0
  9
$USERR1
 40
0.0
  9
$USERR2
 40
0.0
  9
$USERR3
 40
0.0
  9
$USERR4
 40
0.0
  9
$USERR5
 40
0.0
  9
$WORLDVIEW
 70
     1
  9
$SHADEDGE
 70
     3
  9
$SHADEDIF
 70
    70
  9
$TILEMODE
 70
     1
  9
$MAXACTVP
 70
    64
  9
$PINSBASE
 10
0.0
 20
0.0
 30
0.0
  9
$PLIMCHECK
 70
     0
  9
$PEXTMIN
 10
1.000000000000000E+20
 20
1.000000000000000E+20
 30
1.000000000000000E+20
  9
$PEXTMAX
 10
-1.000000000000000E+20
 20
-1.000000000000000E+20
 30
-1.000000000000000E+20
  9
$PLIMMIN
 10
0.0
 20
0.0
  9
$PLIMMAX
 10
12.0
 20
9.0
  9
$UNITMODE
 70
     0
  9
$VISRETAIN
 70
     1
  9
$PLINEGEN
 70
     0
  9
$PSLTSCALE
 70
     1
  9
$TREEDEPTH
 70
  3020
  9
$CMLSTYLE
  2
Standard
  9
$CMLJUST
 70
     0
  9
$CMLSCALE
 40
1.0
  9
$PROXYGRAPHICS
 70
     1
  9
$MEASUREMENT
 70
     0
  9
$CELWEIGHT
370
    -1
  9
$ENDCAPS
280
     0
  9
$JOINSTYLE
280
     0
  9
$LWDISPLAY
290
     0
  9
$INSUNITS
 70
     1
  9
$HYPERLINKBASE
  1

  9
$STYLESHEET
  1

  9
$XEDIT
290
     1
  9
$CEPSNTYPE
380
     0
  9
$PSTYLEMODE
290
     1
  9
$FINGERPRINTGUID
  2
{12F50282-3ED8-11D3-A8B7-0060B0F84BC6}
  9
$VERSIONGUID
  2
{12F50293-3ED8-11D3-A8B7-0060B0F84BC6}
  9
$EXTNAMES
290
     1
  9
$PSVPSCALE
 40
0.0
  9
$OLESTARTUP
290
     0
  9
$SORTENTS
280
   127
  9
$INDEXCTL
280
     0
  9
$HIDETEXT
280
     0
  9
$XCLIPFRAME
280
     2
  9
$HALOGAP
280
     0
  9
$OBSCOLOR
 70
   257
  9
$OBSLTYPE
280
     0
  9
$INTERSECTIONDISPLAY
280
     0
  9
$INTERSECTIONCOLOR
 70
   257
  9
$DIMASSOC
280
     1
  9
$PROJECTNAME
  1

  9
$CAMERADISPLAY
290
     0
  9
$LENSLENGTH
 40
50.0
  9
$CAMERAHEIGHT
 40
0.0
  9
$STEPSPERSEC
 40
2.0
  9
$STEPSIZE
 40
6.0
  9
$3DDWFPREC
 40
2.0
  9
$PSOLWIDTH
 40
0.25
  9
$PSOLHEIGHT
 40
4.0
  9
$LOFTANG1
 40
1.570796326794896
  9
$LOFTANG2
 40
1.570796326794896
  9
$LOFTMAG1
 40
0.0
  9
$LOFTMAG2
 40
0.0
  9
$LOFTPARAM
 70
     7
  9
$LOFTNORMALS
280
     1
  9
$LATITUDE
 40
37.795
  9
$LONGITUDE
 40
-122.394
  9
$NORTHDIRECTION
 40
0.0
  9
$TIMEZONE
 70
 -8000
  9
$LIGHTGLYPHDISPLAY
280
     1
  9
$TILEMODELIGHTSYNCH
280
     1
  9
$CMATERIAL
347
AB
  9
$SOLIDHIST
280
     0
  9
$SHOWHIST
280
     1
  9
$DWFFRAME
280
     2
  9
$DGNFRAME
280
     0
  9
$REALWORLDSCALE
290
     1
  9
$INTERFERECOLOR
 62
     1
  9
$INTERFEREOBJVS
345
CD
  9
$INTERFEREVPVS
346
CA
  9
$CSHADOW
280
     0
  9
$SHADOWPLANELOCATION
 40
0.0
  0
ENDSEC
  0
SECTION
  2
CLASSES
  0
CLASS
  1
ACDBDICTIONARYWDFLT
  2
AcDbDictionaryWithDefault
  3
ObjectDBX Classes
 90
        0
 91
        1
280
     0
281
     0
  0
CLASS
  1
ACDBPLACEHOLDER
  2
AcDbPlaceHolder
  3
ObjectDBX Classes
 90
        0
 91
        2
280
     0
281
     0
  0
CLASS
  1
LAYOUT
  2
AcDbLayout
  3
ObjectDBX Classes
 90
        0
 91
        3
280
     0
281
     0
  0
CLASS
  1
MATERIAL
  2
AcDbMaterial
  3
ObjectDBX Classes
 90
     1153
 91
        3
280
     0
281
     0
  0
CLASS
  1
VISUALSTYLE
  2
AcDbVisualStyle
  3
ObjectDBX Classes
 90
     4095
 91
       24
280
     0
281
     0
  0
CLASS
  1
TABLESTYLE
  2
AcDbTableStyle
  3
ObjectDBX Classes
 90
     4095
 91
        1
280
     0
281
     0
  0
CLASS
  1
SCALE
  2
AcDbScale
  3
ObjectDBX Classes
 90
     1153
 91
       17
280
     0
281
     0
  0
CLASS
  1
MLEADERSTYLE
  2
AcDbMLeaderStyle
  3
ACDB_MLEADERSTYLE_CLASS
 90
     4095
 91
        1
280
     0
281
     0
  0
CLASS
  1
ACDBSECTIONVIEWSTYLE
  2
AcDbSectionViewStyle
  3
ObjectDBX Classes
 90
     1025
 91
        1
280
     0
281
     0
  0
CLASS
  1
ACDBDETAILVIEWSTYLE
  2
AcDbDetailViewStyle
  3
ObjectDBX Classes
 90
     1025
 91
        1
280
     0
281
     0
  0
CLASS
  1
MESH
  2
AcDbSubDMesh
  3
ObjectDBX Classes
 90
        0
 91
        1
280
     0
281
     1
  0
CLASS
  1
DICTIONARYVAR
  2
AcDbDictionaryVar
  3
ObjectDBX Classes
 90
        0
 91
        9
280
     0
281
     0
  0
CLASS
  1
CELLSTYLEMAP
  2
AcDbCellStyleMap
  3
ObjectDBX Classes
 90
     1152
 91
        1
280
     0
281
     0
  0
ENDSEC
  0
SECTION
  2
TABLES
  0
TABLE
  2
VPORT
  5
8
330
0
100
AcDbSymbolTable
 70
     1
  0
VPORT
  5
A8
330
8
100
AcDbSymbolTableRecord
100
AcDbViewportTableRecord
  2
*Active
 70
     0
 10
0.0
 20
0.0
 11
1.0
 21
1.0
 12
-24.59411239624023
 22
38.146728515625
 13
0.0
 23
0.0
 14
0.5
 24
0.5
 15
0.5
 25
0.5
 16
-1.0
 26
-1.0
 36
1.0
 17
0.0
 27
0.0
 37
0.0
 40
75.72163963227824
 41
0.7946096033416515
 42
50.0
 43
0.0
 44
0.0
 50
0.0
 51
0.0
 71
     0
 72
   100
 73
     1
 74
     3
 75
     0
 76
     0
 77
     0
 78
     0
281
     0
 65
     1
110
0.0
120
0.0
130
0.0
111
1.0
121
0.0
131
0.0
112
0.0
122
1.0
132
0.0
 79
     0
146
0.0
348
C9
 60
     3
 61
     5
292
     1
282
     1
141
0.0
142
0.0
 63
   250
421
  3355443
  0
ENDTAB
  0
TABLE
  2
LTYPE
  5
5
330
0
100
AcDbSymbolTable
 70
     1
  0
LTYPE
  5
14
330
5
100
AcDbSymbolTableRecord
100
AcDbLinetypeTableRecord
  2
ByBlock
 70
     0
  3

 72
    65
 73
     0
 40
0.0
  0
LTYPE
  5
15
330
5
100
AcDbSymbolTableRecord
100
AcDbLinetypeTableRecord
  2
ByLayer
 70
     0
  3

 72
    65
 73
     0
 40
0.0
  0
LTYPE
  5
16
330
5
100
AcDbSymbolTableRecord
100
AcDbLinetypeTableRecord
  2
Continuous
 70
     0
  3
Solid line
 72
    65
 73
     0
 40
0.0
  0
ENDTAB
  0
TABLE
  2
LAYER
  5
2
330
0
100
AcDbSymbolTable
 70
     2
  0
LAYER
  5
10
330
2
100
AcDbSymbolTableRecord
100
AcDbLayerTableRecord
  2
0
 70
     0
 62
   196
420
  3737736
  6
Continuous
370
    -3
390
F
347
BB
  0
LAYER
  5
2B
330
2
100
AcDbSymbolTableRecord
100
AcDbLayerTableRecord
  2
ASHADE
 70
     4
 62
     7
  6
Continuous
370
    -3
390
2D
347
BB
  0
ENDTAB
  0
TABLE
  2
STYLE
  5
3
330
0
100
AcDbSymbolTable
 70
     2
  0
STYLE
  5
11
330
3
100
AcDbSymbolTableRecord
100
AcDbTextStyleTableRecord
  2
Standard
 70
     0
 40
0.0
 41
1.0
 50
0.0
 71
     0
 42
0.2
  3
txt
  4

  0
STYLE
  5
2C
330
3
100
AcDbSymbolTableRecord
100
AcDbTextStyleTableRecord
  2
ASHADE
 70
     0
 40
0.2
 41
1.0
 50
0.0
 71
     0
 42
0.2
  3
simplex
  4

  0
ENDTAB
  0
TABLE
  2
VIEW
  5
6
330
0
100
AcDbSymbolTable
 70
     0
  0
ENDTAB
  0
TABLE
  2
UCS
  5
7
330
0
100
AcDbSymbolTable
 70
     0
  0
ENDTAB
  0
TABLE
  2
APPID
  5
9
330
0
100
AcDbSymbolTable
 70
     6
  0
APPID
  5
12
330
9
100
AcDbSymbolTableRecord
100
AcDbRegAppTableRecord
  2
ACAD
 70
     0
  0
APPID
  5
8F
330
9
100
AcDbSymbolTableRecord
100
AcDbRegAppTableRecord
  2
AVE_RENDER
 70
     0
  0
APPID
  5
90
330
9
100
AcDbSymbolTableRecord
100
AcDbRegAppTableRecord
  2
AVE_ENTITY_MATERIAL
 70
     0
  0
APPID
  5
9C
330
9
100
AcDbSymbolTableRecord
100
AcDbRegAppTableRecord
  2
AVE_FINISH
 70
     0
  0
APPID
  5
9D
330
9
100
AcDbSymbolTableRecord
100
AcDbRegAppTableRecord
  2
AVE_MATERIAL
 70
     0
  0
APPID
  5
9E
330
9
100
AcDbSymbolTableRecord
100
AcDbRegAppTableRecord
  2
AVE_GLOBAL
 70
     0
  0
ENDTAB
  0
TABLE
  2
DIMSTYLE
  5
A
330
0
100
AcDbSymbolTable
 70
     1
100
AcDbDimStyleTable
 71
     0
  0
DIMSTYLE
105
27
330
A
100
AcDbSymbolTableRecord
100
AcDbDimStyleTableRecord
  2
Standard
 70
     0
340
11
  0
ENDTAB
  0
TABLE
  2
BLOCK_RECORD
  5
1
330
0
100
AcDbSymbolTable
 70
     6
  0
BLOCK_RECORD
  5
1F
330
1
100
AcDbSymbolTableRecord
100
AcDbBlockTableRecord
  2
*Model_Space
340
22
 70
     0
280
     1
281
     0
  0
BLOCK_RECORD
  5
1B
330
1
100
AcDbSymbolTableRecord
100
AcDbBlockTableRecord
  2
*Paper_Space
340
1E
 70
     0
280
     1
281
     0
  0
BLOCK_RECORD
  5
23
330
1
100
AcDbSymbolTableRecord
100
AcDbBlockTableRecord
  2
*Paper_Space0
340
26
 70
     0
280
     1
281
     0
  0
BLOCK_RECORD
  5
2E
330
1
100
AcDbSymbolTableRecord
100
AcDbBlockTableRecord
  2
direct
340
0
 70
     0
280
     1
281
     0
  0
BLOCK_RECORD
  5
42
330
1
100
AcDbSymbolTableRecord
100
AcDbBlockTableRecord
  2
overhead
340
0
 70
     0
280
     1
281
     0
  0
BLOCK_RECORD
  5
5F
330
1
100
AcDbSymbolTableRecord
100
AcDbBlockTableRecord
  2
sh_spot
340
0
 70
     0
280
     1
281
     0
  0
BLOCK_RECORD
  5
91
330
1
100
AcDbSymbolTableRecord
100
AcDbBlockTableRecord
  2
AVE_RENDER
340
0
102
{BLKREFS
331
94
331
95
331
96
331
97
331
98
331
99
331
9A
331
9B
102
}
 70
     0
280
     1
281
     0
  0
BLOCK_RECORD
  5
9F
330
1
100
AcDbSymbolTableRecord
100
AcDbBlockTableRecord
  2
AVE_GLOBAL
340
0
102
{BLKREFS
331
A2
102
}
 70
     0
280
     1
281
     0
  0
ENDTAB
  0
ENDSEC
  0
SECTION
  2
BLOCKS
  0
BLOCK
  5
20
330
1F
100
AcDbEntity
  8
0
100
AcDbBlockBegin
  2
*Model_Space
 70
     0
 10
0.0
 20
0.0
 30
0.0
  3
*Model_Space
  1

  0
ENDBLK
  5
21
330
1F
100
AcDbEntity
  8
0
100
AcDbBlockEnd
  0
BLOCK
  5
1C
330
1B
100
AcDbEntity
 67
     1
  8
0
100
AcDbBlockBegin
  2
*Paper_Space
 70
     0
 10
0.0
 20
0.0
 30
0.0
  3
*Paper_Space
  1

  0
ENDBLK
  5
1D
330
1B
100
AcDbEntity
 67
     1
  8
0
100
AcDbBlockEnd
  0
BLOCK
  5
24
330
23
100
AcDbEntity
 67
     1
  8
0
100
AcDbBlockBegin
  2
*Paper_Space0
 70
     0
 10
0.0
 20
0.0
 30
0.0
  3
*Paper_Space0
  1

  0
ENDBLK
  5
25
330
23
100
AcDbEntity
 67
     1
  8
0
100
AcDbBlockEnd
  0
BLOCK
  5
40
330
2E
100
AcDbEntity
  8
0
100
AcDbBlockBegin
  2
direct
 70
     2
 10
0.0
 20
0.0
 30
0.0
  3
direct
  1

  0
ATTDEF
  5
2F
330
2E
100
AcDbEntity
  8
ASHADE
  6
Continuous
 62
     1
100
AcDbText
 10
0.0
 20
-0.1
 30
0.0
 40
0.2
  1

  7
ASHADE
 72
     1
 11
0.0
 21
-0.1
 31
0.0
100
AcDbAttributeDefinition
280
     0
  3
Light Name
  2
SNAME
 70
     0
280
     0
  0
ARC
  5
30
330
2E
100
AcDbEntity
  8
ASHADE
  6
Continuous
 62
     7
100
AcDbCircle
 10
0.0
 20
0.0
 30
0.0
 40
0.3
100
AcDbArc
 50
205.6792886194569
 51
334.3207113805431
  0
ARC
  5
31
330
2E
100
AcDbEntity
  8
ASHADE
  6
Continuous
 62
     7
100
AcDbCircle
 10
0.0
 20
0.0
 30
0.0
 40
0.3
100
AcDbArc
 50
25.67928861945685
 51
154.3207113805431
  0
LINE
  5
32
330
2E
100
AcDbEntity
  8
ASHADE
  6
Continuous
 62
     7
100
AcDbLine
 10
-0.21
 20
0.2142428528562855
 30
0.0
 11
-0.21
 21
0.5
 31
0.0
  0
LINE
  5
33
330
2E
100
AcDbEntity
  8
ASHADE
  6
Continuous
 62
     7
100
AcDbLine
 10
-0.11
 20
0.2791057147390572
 30
0.0
 11
-0.11
 21
0.5
 31
0.0
  0
LINE
  5
34
330
2E
100
AcDbEntity
  8
ASHADE
  6
Continuous
 62
     7
100
AcDbLine
 10
0.21
 20
0.2142428528562855
 30
0.0
 11
0.21
 21
0.5
 31
0.0
  0
ATTDEF
  5
35
330
2E
100
AcDbEntity
  8
ASHADE
  6
Continuous
 62
     7
100
AcDbText
 10
0.0
 20
0.25
 30
0.0
 40
0.01
  1

100
AcDbAttributeDefinition
280
     0
  3
Look-at Y
  2
LAY
 70
     1
280
     0
  0
ATTDEF
  5
36
330
2E
100
AcDbEntity
  8
ASHADE
  6
Continuous
 62
     7
100
AcDbText
 10
0.0
 20
0.22
 30
0.0
 40
0.01
  1
1
100
AcDbAttributeDefinition
280
     0
  3
Light Intensity
  2
INTENSITY
 70
     1
280
     0
  0
ATTDEF
  5
37
330
2E
100
AcDbEntity
  8
ASHADE
  6
Continuous
 62
     7
100
AcDbText
 10
0.0
 20
0.16
 30
0.0
 40
0.01
  1
-1
100
AcDbAttributeDefinition
280
     0
  3
*not used*
  2
BEAMD
 70
     1
280
     0
  0
ATTDEF
  5
38
330
2E
100
AcDbEntity
  8
ASHADE
  6
Continuous
 62
     7
100
AcDbText
 10
0.0
 20
0.175
 30
0.0
 40
0.01
  1
-1
100
AcDbAttributeDefinition
280
     0
  3
*not used*
  2
CONED
 70
     1
280
     0
  0
ATTDEF
  5
39
330
2E
100
AcDbEntity
  8
ASHADE
  6
Continuous
 62
     7
100
AcDbText
 10
0.0
 20
0.19
 30
0.0
 40
0.01
  1
0
100
AcDbAttributeDefinition
280
     0
  3
Depth Map Size
  2
CONEA
 70
     1
280
     0
  0
ATTDEF
  5
3A
330
2E
100
AcDbEntity
  8
ASHADE
  6
Continuous
 62
     7
100
AcDbText
 10
0.0
 20
0.2050000000000001
 30
0.0
 40
0.01
  1
1,1,1
100
AcDbAttributeDefinition
280
     0
  3
Light Color (RGB)
  2
COLOR
 70
     1
280
     0
  0
ATTDEF
  5
3B
330
2E
100
AcDbEntity
  8
ASHADE
  6
Continuous
 62
     7
100
AcDbText
 10
0.0
 20
0.235
 30
0.0
 40
0.01
  1

100
AcDbAttributeDefinition
280
     0
  3
Look-at Z
  2
LAZ
 70
     1
280
     0
  0
LINE
  5
3C
330
2E
100
AcDbEntity
  8
ASHADE
  6
Continuous
 62
     7
100
AcDbLine
 10
0.0
 20
0.3
 30
0.0
 11
0.0
 21
0.5
 31
0.0
  0
LINE
  5
3D
330
2E
100
AcDbEntity
  8
ASHADE
  6
Continuous
 62
     7
100
AcDbLine
 10
0.11
 20
0.2791057147390572
 30
0.0
 11
0.11
 21
0.5
 31
0.0
  0
ATTDEF
  5
3E
330
2E
100
AcDbEntity
  8
ASHADE
  6
Continuous
 62
     7
100
AcDbText
 10
0.0
 20
0.265
 30
0.0
 40
0.01
  1

100
AcDbAttributeDefinition
280
     0
  3
Look-at X
  2
LAX
 70
     1
280
     0
  0
ATTDEF
  5
3F
330
2E
100
AcDbEntity
  8
ASHADE
  6
Continuous
 62
     7
100
AcDbText
 10
0.0
 20
0.28
 30
0.0
 40
0.01
  1

100
AcDbAttributeDefinition
280
     0
  3

  2
GNAME
 70
     1
280
     0
  0
ENDBLK
  5
41
330
2E
100
AcDbEntity
  8
0
100
AcDbBlockEnd
  0
BLOCK
  5
5D
330
42
100
AcDbEntity
  8
0
100
AcDbBlockBegin
  2
overhead
 70
     2
 10
0.0
 20
0.0
 30
0.0
  3
overhead
  1

  0
ATTDEF
  5
43
330
42
100
AcDbEntity
  8
ASHADE
  6
Continuous
 62
     1
100
AcDbText
 10
0.0
 20
-0.1
 30
0.0
 40
0.2
  1

  7
ASHADE
 72
     1
 11
0.0
 21
-0.1
 31
0.0
100
AcDbAttributeDefinition
280
     0
  3
Light Name
  2
SNAME
 70
     0
280
     0
  0
ARC
  5
44
330
42
100
AcDbEntity
  8
ASHADE
  6
Continuous
 62
     7
100
AcDbCircle
 10
0.0
 20
0.0
 30
0.0
 40
0.3
100
AcDbArc
 50
205.6792886194569
 51
334.3207113805431
  0
LINE
  5
45
330
42
100
AcDbEntity
  8
ASHADE
  6
Continuous
 62
     7
100
AcDbLine
 10
-0.2041413561583015
 20
-0.2198324514393848
 30
0.0
 11
-0.2721884748777353
 21
-0.2931099352525131
 31
0.0
  0
LINE
  5
46
330
42
100
AcDbEntity
  8
ASHADE
  6
Continuous
 62
     7
100
AcDbLine
 10
-0.1096591641591904
 20
-0.2792398032442862
 30
0.0
 11
-0.1279356915190555
 21
-0.3257797704516673
 31
0.0
  0
LINE
  5
47
330
42
100
AcDbEntity
  8
ASHADE
  6
Continuous
 62
     7
100
AcDbLine
 10
0.0
 20
-0.2999999999999999
 30
0.0
 11
0.0
 21
-0.4
 31
0.0
  0
LINE
  5
48
330
42
100
AcDbEntity
  8
ASHADE
  6
Continuous
 62
     7
100
AcDbLine
 10
0.1096591641591904
 20
-0.2792398032442862
 30
0.0
 11
0.1279356915190555
 21
-0.3257797704516673
 31
0.0
  0
LINE
  5
49
330
42
100
AcDbEntity
  8
ASHADE
  6
Continuous
 62
     7
100
AcDbLine
 10
0.2041413561583015
 20
-0.2198324514393848
 30
0.0
 11
0.2721884748777353
 21
-0.2931099352525131
 31
0.0
  0
ARC
  5
4A
330
42
100
AcDbEntity
  8
ASHADE
  6
Continuous
 62
     7
100
AcDbCircle
 10
0.0
 20
0.0
 30
0.0
 40
0.3
100
AcDbArc
 50
25.67928861945685
 51
154.3207113805431
  0
LINE
  5
4B
330
42
100
AcDbEntity
  8
ASHADE
  6
Continuous
 62
     7
100
AcDbLine
 10
-0.2703701166919155
 20
0.13
 30
0.0
 11
-0.3154318028072347
 21
0.1516666666666666
 31
0.0
  0
LINE
  5
4C
330
42
100
AcDbEntity
  8
ASHADE
  6
Continuous
 62
     7
100
AcDbLine
 10
-0.2703701166919155
 20
-0.13
 30
0.0
 11
-0.3154318028072347
 21
-0.1516666666666666
 31
0.0
  0
LINE
  5
4D
330
42
100
AcDbEntity
  8
ASHADE
  6
Continuous
 62
     7
100
AcDbLine
 10
-0.2041413561583015
 20
0.2198324514393849
 30
0.0
 11
-0.2721884748777353
 21
0.2931099352525131
 31
0.0
  0
LINE
  5
4E
330
42
100
AcDbEntity
  8
ASHADE
  6
Continuous
 62
     7
100
AcDbLine
 10
-0.1096591641591904
 20
0.2792398032442862
 30
0.0
 11
-0.1279356915190555
 21
0.3257797704516674
 31
0.0
  0
LINE
  5
4F
330
42
100
AcDbEntity
  8
ASHADE
  6
Continuous
 62
     7
100
AcDbLine
 10
0.2703701166919155
 20
-0.13
 30
0.0
 11
0.3154318028072347
 21
-0.1516666666666666
 31
0.0
  0
LINE
  5
50
330
42
100
AcDbEntity
  8
ASHADE
  6
Continuous
 62
     7
100
AcDbLine
 10
0.2703701166919155
 20
0.13
 30
0.0
 11
0.3154318028072347
 21
0.1516666666666666
 31
0.0
  0
LINE
  5
51
330
42
100
AcDbEntity
  8
ASHADE
  6
Continuous
 62
     7
100
AcDbLine
 10
0.0
 20
0.3
 30
0.0
 11
0.0
 21
0.4
 31
0.0
  0
ATTDEF
  5
52
330
42
100
AcDbEntity
  8
ASHADE
  6
Continuous
 62
     7
100
AcDbText
 10
0.0
 20
0.22
 30
0.0
 40
0.01
  1
1
100
AcDbAttributeDefinition
280
     0
  3
Light Intensity
  2
INTENSITY
 70
     1
280
     0
  0
ATTDEF
  5
53
330
42
100
AcDbEntity
  8
ASHADE
  6
Continuous
 62
     7
100
AcDbText
 10
0.0
 20
0.16
 30
0.0
 40
0.01
  1
-1
100
AcDbAttributeDefinition
280
     0
  3
*not used*
  2
BEAMD
 70
     1
280
     0
  0
ATTDEF
  5
54
330
42
100
AcDbEntity
  8
ASHADE
  6
Continuous
 62
     7
100
AcDbText
 10
0.0
 20
0.175
 30
0.0
 40
0.01
  1
-1
100
AcDbAttributeDefinition
280
     0
  3
*not used*
  2
CONED
 70
     1
280
     0
  0
ATTDEF
  5
55
330
42
100
AcDbEntity
  8
ASHADE
  6
Continuous
 62
     7
100
AcDbText
 10
0.0
 20
0.19
 30
0.0
 40
0.01
  1
0
100
AcDbAttributeDefinition
280
     0
  3
Depth Map Size
  2
CONEA
 70
     1
280
     0
  0
ATTDEF
  5
56
330
42
100
AcDbEntity
  8
ASHADE
  6
Continuous
 62
     7
100
AcDbText
 10
0.0
 20
0.2050000000000001
 30
0.0
 40
0.01
  1
1,1,1
100
AcDbAttributeDefinition
280
     0
  3
Light Color (RGB)
  2
COLOR
 70
     1
280
     0
  0
ATTDEF
  5
57
330
42
100
AcDbEntity
  8
ASHADE
  6
Continuous
 62
     7
100
AcDbText
 10
0.0
 20
0.235
 30
0.0
 40
0.01
  1

100
AcDbAttributeDefinition
280
     0
  3
Look-at Z
  2
LAZ
 70
     1
280
     0
  0
ATTDEF
  5
58
330
42
100
AcDbEntity
  8
ASHADE
  6
Continuous
 62
     7
100
AcDbText
 10
0.0
 20
0.25
 30
0.0
 40
0.01
  1

100
AcDbAttributeDefinition
280
     0
  3
Look-at Y
  2
LAY
 70
     1
280
     0
  0
ATTDEF
  5
59
330
42
100
AcDbEntity
  8
ASHADE
  6
Continuous
 62
     7
100
AcDbText
 10
0.0
 20
0.265
 30
0.0
 40
0.01
  1

100
AcDbAttributeDefinition
280
     0
  3
Look-at X
  2
LAX
 70
     1
280
     0
  0
ATTDEF
  5
5A
330
42
100
AcDbEntity
  8
ASHADE
  6
Continuous
 62
     7
100
AcDbText
 10
0.0
 20
0.28
 30
0.0
 40
0.01
  1

100
AcDbAttributeDefinition
280
     0
  3

  2
GNAME
 70
     1
280
     0
  0
LINE
  5
5B
330
42
100
AcDbEntity
  8
ASHADE
  6
Continuous
 62
     7
100
AcDbLine
 10
0.1096591641591904
 20
0.2792398032442862
 30
0.0
 11
0.1279356915190555
 21
0.3257797704516674
 31
0.0
  0
LINE
  5
5C
330
42
100
AcDbEntity
  8
ASHADE
  6
Continuous
 62
     7
100
AcDbLine
 10
0.2041413561583015
 20
0.2198324514393849
 30
0.0
 11
0.2721884748777353
 21
0.2931099352525131
 31
0.0
  0
ENDBLK
  5
5E
330
42
100
AcDbEntity
  8
0
100
AcDbBlockEnd
  0
BLOCK
  5
85
330
5F
100
AcDbEntity
  8
0
100
AcDbBlockBegin
  2
sh_spot
 70
     2
 10
0.0
 20
0.0
 30
0.0
  3
sh_spot
  1

  0
LINE
  5
60
330
5F
100
AcDbEntity
  8
ASHADE
  6
Continuous
 62
     7
100
AcDbLine
 10
0.25
 20
0.26
 30
0.0
 11
-0.25
 21
0.26
 31
0.0
  0
LINE
  5
61
330
5F
100
AcDbEntity
  8
ASHADE
  6
Continuous
 62
     7
100
AcDbLine
 10
-0.25
 20
-0.3399999999999999
 30
0.0
 11
0.25
 21
-0.3399999999999999
 31
0.0
  0
ATTDEF
  5
62
330
5F
100
AcDbEntity
  8
ASHADE
  6
Continuous
 62
     1
100
AcDbText
 10
0.0
 20
-0.1
 30
0.0
 40
0.2
  1

  7
ASHADE
 72
     1
 11
0.0
 21
-0.1
 31
0.0
100
AcDbAttributeDefinition
280
     0
  3
Light Name
  2
SNAME
 70
     0
280
     0
  0
LINE
  5
63
330
5F
100
AcDbEntity
  8
ASHADE
  6
Continuous
 62
     7
100
AcDbLine
 10
-0.25
 20
-0.13
 30
0.0
 11
-0.25
 21
-0.3399999999999999
 31
0.0
  0
LINE
  5
64
330
5F
100
AcDbEntity
  8
ASHADE
  6
Continuous
 62
     7
100
AcDbLine
 10
-0.25
 20
-0.18
 30
0.0
 11
-0.29
 21
-0.18
 31
0.0
  0
LINE
  5
65
330
5F
100
AcDbEntity
  8
ASHADE
  6
Continuous
 62
     7
100
AcDbLine
 10
-0.29
 20
-0.22
 30
0.0
 11
-0.25
 21
-0.22
 31
0.0
  0
LINE
  5
66
330
5F
100
AcDbEntity
  8
ASHADE
  6
Continuous
 62
     7
100
AcDbLine
 10
-0.29
 20
-0.18
 30
0.0
 11
-0.29
 21
-0.22
 31
0.0
  0
LINE
  5
67
330
5F
100
AcDbEntity
  8
ASHADE
  6
Continuous
 62
     7
100
AcDbLine
 10
-0.1045454545454545
 20
0.26
 30
0.0
 11
-0.15
 21
0.46
 31
0.0
  0
LINE
  5
68
330
5F
100
AcDbEntity
  8
ASHADE
  6
Continuous
 62
     7
100
AcDbLine
 10
-0.21
 20
0.26
 30
0.0
 11
-0.301304347826087
 21
0.46
 31
0.0
  0
LINE
  5
69
330
5F
100
AcDbEntity
  8
ASHADE
  6
Continuous
 62
     7
100
AcDbLine
 10
-0.25
 20
0.26
 30
0.0
 11
-0.25
 21
0.13
 31
0.0
  0
LINE
  5
6A
330
5F
100
AcDbEntity
  8
ASHADE
  6
Continuous
 62
     7
100
AcDbLine
 10
-0.25
 20
0.22
 30
0.0
 11
-0.29
 21
0.22
 31
0.0
  0
LINE
  5
6B
330
5F
100
AcDbEntity
  8
ASHADE
  6
Continuous
 62
     7
100
AcDbLine
 10
-0.29
 20
0.1799999999999999
 30
0.0
 11
-0.25
 21
0.1799999999999999
 31
0.0
  0
LINE
  5
6C
330
5F
100
AcDbEntity
  8
ASHADE
  6
Continuous
 62
     7
100
AcDbLine
 10
-0.29
 20
0.22
 30
0.0
 11
-0.29
 21
0.1799999999999999
 31
0.0
  0
ATTDEF
  5
6D
330
5F
100
AcDbEntity
  8
ASHADE
  6
Continuous
 62
     7
100
AcDbText
 10
0.0
 20
-0.24
 30
0.0
 40
0.01
  1
0
100
AcDbAttributeDefinition
280
     0
  3
Depth Map Size
  2
ZSIZE
 70
     1
280
     0
  0
ATTDEF
  5
6E
330
5F
100
AcDbEntity
  8
ASHADE
  6
Continuous
 62
     7
100
AcDbText
 10
0.0
 20
-0.3300000000000001
 30
0.0
 40
0.01
  1
0,0,0
100
AcDbAttributeDefinition
280
     0
  3
Look-from XYZ
  2
LFXYZ
 70
     1
280
     0
  0
ATTDEF
  5
6F
330
5F
100
AcDbEntity
  8
ASHADE
  6
Continuous
 62
     7
100
AcDbText
 10
0.0
 20
-0.315
 30
0.0
 40
0.01
  1
0.0
100
AcDbAttributeDefinition
280
     0
  3
Beam Distribution
  2
BEAMDI
 70
     1
280
     0
  0
ATTDEF
  5
70
330
5F
100
AcDbEntity
  8
ASHADE
  6
Continuous
 62
     7
100
AcDbText
 10
0.0
 20
-0.3
 30
0.0
 40
0.01
  1
0.0
100
AcDbAttributeDefinition
280
     0
  3
Cone Delta
  2
CONEDE
 70
     1
280
     0
  0
ATTDEF
  5
71
330
5F
100
AcDbEntity
  8
ASHADE
  6
Continuous
 62
     7
100
AcDbText
 10
0.0
 20
-0.2850000000000001
 30
0.0
 40
0.01
  1
10.0
100
AcDbAttributeDefinition
280
     0
  3
Cone Angle
  2
CONEAN
 70
     1
280
     0
  0
ATTDEF
  5
72
330
5F
100
AcDbEntity
  8
ASHADE
  6
Continuous
 62
     7
100
AcDbText
 10
0.0
 20
-0.27
 30
0.0
 40
0.01
  1
-1
100
AcDbAttributeDefinition
280
     0
  3
*not used*
  2
BIASMAX
 70
     1
280
     0
  0
ATTDEF
  5
73
330
5F
100
AcDbEntity
  8
ASHADE
  6
Continuous
 62
     7
100
AcDbText
 10
0.0
 20
-0.255
 30
0.0
 40
0.01
  1
-1
100
AcDbAttributeDefinition
280
     0
  3
*not used*
  2
BIASMIN
 70
     1
280
     0
  0
ATTDEF
  5
74
330
5F
100
AcDbEntity
  8
ASHADE
  6
Continuous
 62
     7
100
AcDbText
 10
0.0
 20
-0.225
 30
0.0
 40
0.01
  1
1,1,1
100
AcDbAttributeDefinition
280
     0
  3
Light Color (RGB)
  2
COLOR
 70
     1
280
     0
  0
ATTDEF
  5
75
330
5F
100
AcDbEntity
  8
ASHADE
  6
Continuous
 62
     7
100
AcDbText
 10
0.0
 20
-0.21
 30
0.0
 40
0.01
  1
1
100
AcDbAttributeDefinition
280
     0
  3
Light Intensity
  2
INTENSITY
 70
     1
280
     0
  0
ATTDEF
  5
76
330
5F
100
AcDbEntity
  8
ASHADE
  6
Continuous
 62
     7
100
AcDbText
 10
0.0
 20
-0.15
 30
0.0
 40
0.01
  1

100
AcDbAttributeDefinition
280
     0
  3

  2
GNAME
 70
     1
280
     0
  0
ATTDEF
  5
77
330
5F
100
AcDbEntity
  8
ASHADE
  6
Continuous
 62
     7
100
AcDbText
 10
0.0
 20
-0.195
 30
0.0
 40
0.01
  1

100
AcDbAttributeDefinition
280
     0
  3
Look-at Z
  2
LAZ
 70
     1
280
     0
  0
ATTDEF
  5
78
330
5F
100
AcDbEntity
  8
ASHADE
  6
Continuous
 62
     7
100
AcDbText
 10
0.0
 20
-0.18
 30
0.0
 40
0.01
  1

100
AcDbAttributeDefinition
280
     0
  3
Look-at Y
  2
LAY
 70
     1
280
     0
  0
ATTDEF
  5
79
330
5F
100
AcDbEntity
  8
ASHADE
  6
Continuous
 62
     7
100
AcDbText
 10
0.0
 20
-0.165
 30
0.0
 40
0.01
  1

100
AcDbAttributeDefinition
280
     0
  3
Look-at X
  2
LAX
 70
     1
280
     0
  0
LINE
  5
7A
330
5F
100
AcDbEntity
  8
ASHADE
  6
Continuous
 62
     7
100
AcDbLine
 10
0.25
 20
-0.3399999999999999
 30
0.0
 11
0.25
 21
-0.13
 31
0.0
  0
LINE
  5
7B
330
5F
100
AcDbEntity
  8
ASHADE
  6
Continuous
 62
     7
100
AcDbLine
 10
0.25
 20
-0.18
 30
0.0
 11
0.29
 21
-0.18
 31
0.0
  0
LINE
  5
7C
330
5F
100
AcDbEntity
  8
ASHADE
  6
Continuous
 62
     7
100
AcDbLine
 10
0.29
 20
-0.22
 30
0.0
 11
0.25
 21
-0.22
 31
0.0
  0
LINE
  5
7D
330
5F
100
AcDbEntity
  8
ASHADE
  6
Continuous
 62
     7
100
AcDbLine
 10
0.29
 20
-0.18
 30
0.0
 11
0.29
 21
-0.22
 31
0.0
  0
LINE
  5
7E
330
5F
100
AcDbEntity
  8
ASHADE
  6
Continuous
 62
     7
100
AcDbLine
 10
0.21
 20
0.26
 30
0.0
 11
0.301304347826087
 21
0.46
 31
0.0
  0
LINE
  5
7F
330
5F
100
AcDbEntity
  8
ASHADE
  6
Continuous
 62
     7
100
AcDbLine
 10
0.1045454545454545
 20
0.26
 30
0.0
 11
0.15
 21
0.46
 31
0.0
  0
LINE
  5
80
330
5F
100
AcDbEntity
  8
ASHADE
  6
Continuous
 62
     7
100
AcDbLine
 10
0.0
 20
0.26
 30
0.0
 11
0.0
 21
0.46
 31
0.0
  0
LINE
  5
81
330
5F
100
AcDbEntity
  8
ASHADE
  6
Continuous
 62
     7
100
AcDbLine
 10
0.25
 20
0.13
 30
0.0
 11
0.25
 21
0.26
 31
0.0
  0
LINE
  5
82
330
5F
100
AcDbEntity
  8
ASHADE
  6
Continuous
 62
     7
100
AcDbLine
 10
0.25
 20
0.22
 30
0.0
 11
0.29
 21
0.22
 31
0.0
  0
LINE
  5
83
330
5F
100
AcDbEntity
  8
ASHADE
  6
Continuous
 62
     7
100
AcDbLine
 10
0.29
 20
0.1799999999999999
 30
0.0
 11
0.25
 21
0.1799999999999999
 31
0.0
  0
LINE
  5
84
330
5F
100
AcDbEntity
  8
ASHADE
  6
Continuous
 62
     7
100
AcDbLine
 10
0.29
 20
0.22
 30
0.0
 11
0.29
 21
0.1799999999999999
 31
0.0
  0
ENDBLK
  5
86
330
5F
100
AcDbEntity
  8
0
100
AcDbBlockEnd
  0
BLOCK
  5
92
330
91
100
AcDbEntity
  8
ASHADE
100
AcDbBlockBegin
  2
AVE_RENDER
 70
     0
 10
0.0
 20
0.0
 30
0.0
  3
AVE_RENDER
  1
AVE_RENDER
  0
ENDBLK
  5
93
330
91
100
AcDbEntity
  8
0
100
AcDbBlockEnd
  0
BLOCK
  5
A0
330
9F
100
AcDbEntity
  8
ASHADE
100
AcDbBlockBegin
  2
AVE_GLOBAL
 70
     0
 10
0.0
 20
0.0
 30
0.0
  3
AVE_GLOBAL
  1
AVE_GLOBAL
  0
ENDBLK
  5
A1
330
9F
100
AcDbEntity
  8
0
100
AcDbBlockEnd
  0
ENDSEC
  0
SECTION
  2
ENTITIES
  0
INSERT
  5
94
330
1F
100
AcDbEntity
  8
ASHADE
 62
     1
100
AcDbBlockReference
  2
AVE_RENDER
 10
0.0
 20
0.0
 30
0.0
1001
AVE_RENDER
1002
{
1070
     7
1000
Pref
1070
    30
1070
    20
1070
     1
1070
     0
1000

1070
    10
1070
     1
1070
    10
1040
1.0
1070
     1
1040
0.3
1040
0.7
1040
0.0
1040
10.0
1010
-1.0
1020
-1.0
1030
-1.0
1040
0.3
1070
    49
1070
     0
1070
     0
1010
1.0
1020
1.0
1030
1.0
1040
45.0
1070
     1
1070
     0
1000
WCS
1040
0.0
1070
     0
1040
10.0
1002
}
  0
INSERT
  5
95
330
1F
100
AcDbEntity
  8
ASHADE
 62
     3
100
AcDbBlockReference
  2
AVE_RENDER
 10
0.0
 20
0.0
 30
0.0
1001
AVE_RENDER
1002
{
1070
     0
1000
Full Opt
1070
     0
1070
     1
1070
     1
1070
     1
1070
     0
1070
     0
1070
     0
1070
     1
1070
     1
1040
0.0001
1040
0.0001
1002
}
  0
INSERT
  5
96
330
1F
100
AcDbEntity
  8
ASHADE
 62
     4
100
AcDbBlockReference
  2
AVE_RENDER
 10
0.0
 20
0.0
 30
0.0
1001
AVE_RENDER
1002
{
1070
     0
1000
Quick Opt
1070
     0
1070
     1
1070
     1
1070
     1
1070
     0
1070
     0
1070
     1
1002
}
  0
INSERT
  5
97
330
1F
100
AcDbEntity
  8
ASHADE
 62
     5
100
AcDbBlockReference
  2
AVE_RENDER
 10
0.0
 20
0.0
 30
0.0
1001
AVE_RENDER
1002
{
1070
     1
1000
Scanl Opt
1070
     2
1070
     0
1070
     2
1040
2.0
1040
4.0
1070
     0
1070
     1
1070
     0
1040
0.03
1002
}
  0
INSERT
  5
98
330
1F
100
AcDbEntity
  8
ASHADE
 62
     6
100
AcDbBlockReference
  2
AVE_RENDER
 10
0.0
 20
0.0
 30
0.0
1001
AVE_RENDER
1002
{
1070
     2
1000
Raytr Opt
1070
     2
1070
     0
1070
     2
1040
2.0
1040
4.0
1070
     0
1070
     1
1070
     1
1040
0.03
1070
     3
1040
0.03
1002
}
  0
INSERT
  5
99
330
1F
100
AcDbEntity
  8
ASHADE
 62
     7
100
AcDbBlockReference
  2
AVE_RENDER
 10
0.0
 20
0.0
 30
0.0
1001
AVE_RENDER
1002
{
1070
     0
1000
RFile Opt
1070
     1
1070
   640
1070
   480
1070
 10000
1070
     1
1070
     8
1070
     8
1070
     0
1070
     0
1070
     0
1070
     0
1070
     0
1070
     0
1070
     0
1002
}
  0
INSERT
  5
9A
330
1F
100
AcDbEntity
  8
ASHADE
 62
     8
100
AcDbBlockReference
  2
AVE_RENDER
 10
0.0
 20
0.0
 30
0.0
1001
AVE_RENDER
1002
{
1070
     0
1000
Fog Opt
1070
     0
1070
     0
1040
0.0
1040
1.0
1040
0.0
1040
1.0
1010
0.5
1020
0.5
1030
0.5
1002
}
  0
INSERT
  5
9B
330
1F
100
AcDbEntity
  8
ASHADE
 62
     9
100
AcDbBlockReference
  2
AVE_RENDER
 10
0.0
 20
0.0
 30
0.0
1001
AVE_RENDER
1002
{
1070
     0
1000
BG Opt
1070
     0
1070
     1
1010
0.0
1020
0.0
1030
0.0
1010
1.0
1020
0.0
1030
0.0
1010
0.0
1020
1.0
1030
0.0
1010
0.0
1020
0.0
1030
1.0
1040
0.5
1040
0.33
1040
0.0
1000

1070
     1
1000

1070
     1
1070
     1
1040
1.0
1040
1.0
1040
0.0
1040
0.0
1070
     0
1002
}
  0
INSERT
  5
A2
330
1F
100
AcDbEntity
  8
ASHADE
 62
     1
100
AcDbBlockReference
  2
AVE_GLOBAL
 10
0.0
 20
0.0
 30
0.0
1001
AVE_MATERIAL
1002
{
1000
*GLOBAL*
1000
2
1000
Global finish.
1002
{
1002
}
1002
{
1070
    63
1002
{
1002
{
1010
-1.0
1020
-1.0
1030
-1.0
1002
}
1040
0.1000000014901161
1000

1040
0.0
1002
{
1002
}
1040
0.0
1002
{
1002
}
1040
0.0
1002
}
1002
{
1002
{
1010
-1.0
1020
-1.0
1030
-1.0
1002
}
1040
0.6999999880790711
1000

1040
0.0
1002
{
1002
}
1040
0.0
1002
{
1002
}
1040
0.0
1002
}
1002
{
1002
{
1010
-1.0
1020
-1.0
1030
-1.0
1002
}
1040
0.2000000029802322
1000

1040
0.0
1002
{
1002
}
1040
0.0
1002
{
1002
}
1040
0.0
1002
}
1002
{
1070
     0
1002
{
1070
     1
1002
{
1040
1.0
1040
1.0
1000

1040
0.0
1002
{
1002
}
1040
0.0
1002
{
1002
}
1040
0.0
1002
}
1002
}
1040
1.0
1040
0.0
1040
0.0
1002
}
1002
{
1040
1.0
1040
1.0
1000

1040
0.0
1002
{
1002
}
1040
0.0
1002
{
1002
}
1040
0.0
1002
}
1002
{
1040
0.5
1040
1.0
1000

1040
0.0
1002
{
1002
}
1040
0.0
1002
{
1002
}
1040
0.0
1002
}
1002
{
1070
     0
1040
0.0
1002
{
1002
}
1040
1.0
1002
{
1002
}
1040
0.0
1002
}
1002
{
1040
0.0
1002
{
1002
{
1010
0.0
1020
0.0
1030
0.0
1002
}
1040
1.0
1000

1040
0.0
1002
{
1002
}
1040
0.0
1002
{
1002
}
1040
0.0
1002
}
1002
}
1002
{
1002
{
1070
     1
1002
{
1040
0.0
1040
1.0
1000

1040
0.0
1002
{
1002
}
1040
0.0
1002
{
1002
}
1040
0.0
1002
}
1002
}
1040
0.0
1002
{
1002
}
1010
1.0
1020
0.0
1030
0.0
1010
0.0
1020
1.0
1030
0.0
1010
0.0
1020
0.0
1030
1.0
1070
     0
1002
}
1002
{
1002
{
1040
1.0
1040
1.0
1002
{
1070
     1
1002
{
1040
1.0
1040
1.0
1000

1040
0.0
1002
{
1002
}
1040
0.0
1002
{
1002
}
1040
0.0
1002
}
1002
}
1002
}
1070
     0
1040
0.0
1002
{
1002
}
1002
}
1002
{
1002
}
1002
}
1002
{
1071
        3
1070
     3
1070
     0
1002
{
1070
     2
1070
     0
1070
     0
1040
0.0
1002
}
1070
     0
1070
     2
1002
{
1002
}
1002
}
1002
{
1040
8030.0
1040
190.3000030517578
1040
0.3050000071525574
1040
228.0
1040
545.0
1040
14.0
1040
17.39999961853027
1040
0.4560000002384186
1002
}
1002
}
  0
MESH
  5
F9
330
1F
100
AcDbEntity
  8
0
 62
    96
420
   427782
160
             30824
310
68780000580300000C00000013000000020000003C00000006000000020000000000002080C34140000000A00A12454000000080070E1340000000A09CC2414000000020A603454000000080070E13400C000000130000000A0000003C0000000600000002000000000000A09CC2414000000020A603454000000080070E13
310
40000000E0F1BF41400000000082F6444000000080070E13400C00000013000000120000003C0000000600000002000000000000E0F1BF41400000000082F6444000000080070E13400000002080BB4140000000409EEA444000000080070E13400C000000130000001A0000003C00000006000000020000000000002080BB
310
4140000000409EEA444000000080070E13400000004047B54140000000E0FADF444000000080070E13400C00000013000000220000003C00000006000000020000000000004047B54140000000E0FADF444000000080070E13400000004047AD4140000000E097D6444000000080070E13400C000000130000002A0000003C
310
00000006000000020000000000004047AD4140000000E097D6444000000080070E13400000002080A341400000006075CE444000000080070E13400C00000013000000320000003C00000006000000020000000000002080A341400000006075CE444000000080070E1340000000E0F19741400000002093C7444000000080
310
070E13400C000000130000003A0000003C0000000600000002000000000000E0F19741400000002093C7444000000080070E1340000000A09C8A414000000060F1C1444000000080070E13400C00000013000000420000003C0000000600000002000000000000A09C8A414000000060F1C1444000000080070E1340000000
310
20807B41400000000090BD444000000080070E13400C000000130000004A0000003C000000060000000200000000000020807B41400000000090BD444000000080070E1340000000A09C6A4140000000006FBA444000000080070E13400C00000013000000520000003C0000000600000002000000000000A09C6A41400000
310
00006FBA444000000080070E1340000000E0F1574140000000608EB8444000000080070E13400C000000130000005A0000003C0000000600000002000000000000208043414000000040EEB7444000000080070E1340000000E0F1574140000000608EB8444000000080070E13400C00000013000000620000003C00000006
310
00000002000000000000E0B78E344000000040EEB7444000000000080E1340000000208043414000000040EEB7444000000080070E13400C000000130000006A0000003C000000060000000200000000000000B88E3440000000A00A12454000000000080E1340000000E0B78E344000000040EEB7444000000000080E1340
310
0C00000013000000720000003C00000006000000020000000000002080C34140000000A00A12454000000080070E134000000000B88E3440000000A00A12454000000000080E13400C000000130000007A0000003C0000000600000002000000000000E0B78E344000000040EEB7444000000000080E13400000008008613A
310
C000000060EEB74440000000000A0E13400C00000013000000820000003C00000006000000020000000000008008613AC000000060EEB74440000000000A0E134000000000EC893AC0000000808EB84440000000000A0E13400C000000130000008A0000003C000000060000000200000000000000EC893AC0000000808EB8
310
4440000000000A0E13400000008041AF3AC0000000206FBA4440000000000A0E13400C00000013000000920000003C00000006000000020000000000008041AF3AC0000000206FBA4440000000000A0E13400000008008D13AC00000002090BD4440000000000A0E13400C000000130000009A0000003C0000000600000002
310
0000000000008008D13AC00000002090BD4440000000000A0E13400000008041EF3AC000000080F1C14440000000000A0E13400C00000013000000A20000003C00000006000000020000000000008041EF3AC000000080F1C14440000000000A0E134000000000EC093BC00000004093C74440000000000A0E13400C000000
310
13000000AA0000003C000000060000000200000000000000EC093BC00000004093C74440000000000A0E13400000008008213BC00000008075CE4440000000000A0E13400C00000013000000B20000003C00000006000000020000000000008008213BC00000008075CE4440000000000A0E1340000000C096343BC0000000
310
0098D64440000000000A0E13400C00000013000000BA0000003C0000000600000002000000000000C096343BC00000000098D64440000000000A0E1340000000C096443BC000000000FBDF4440000000000A0E13400C00000013000000C20000003C0000000600000002000000000000C096443BC000000000FBDF44400000
310
00000A0E13400000008008513BC0000000609EEA4440000000000A0E13400C00000013000000CA0000003C00000006000000020000000000008008513BC0000000609EEA4440000000000A0E134000000000EC593BC00000002082F64440000000000A0E13400C00000013000000D20000003C000000060000000200000000
310
000000EC593BC00000002082F64440000000000A0E134000000080415F3BC000000040A6034540000000000A0E13400C00000013000000DA0000003C00000006000000020000000000008008613BC0000000E00A124540000000000A0E134000000080415F3BC000000040A6034540000000000A0E13400C00000013000000
310
E20000003C00000006000000020000000000008008613BC0000000E00A124540000000000A0E134000000000B88E3440000000A00A12454000000000080E13400C00000013000000EA0000003C0000000600000002000000000000208043414000000040EEB7444000000080070E1340000000608043414000000020EEB744
310
400000008092DF46400C00000013000000F20000003C000000060000000200000000000040B88E344000000020EEB74440000000A092DF4640000000608043414000000020EEB744400000008092DF46400C00000013000000FA0000003C0000000600000002000000000000E0B78E344000000040EEB7444000000000080E
310
134000000040B88E344000000020EEB74440000000A092DF46400C00000013000000020100003C0000000600000002000000000000608043414000000020EEB744400000008092DF464000000020F2574140000000408EB844400000008092DF46400C000000130000000A0100003C000000060000000200000000000020F2
310
574140000000408EB844400000008092DF4640000000C09C6A4140000000E06EBA44400000008092DF46400C00000013000000120100003C0000000600000002000000000000C09C6A4140000000E06EBA44400000008092DF464000000060807B4140000000E08FBD44400000008092DF46400C000000130000001A010000
310
3C000000060000000200000000000060807B4140000000E08FBD44400000008092DF4640000000C09C8A414000000040F1C144400000008092DF46400C00000013000000220100003C0000000600000002000000000000C09C8A414000000040F1C144400000008092DF464000000020F29741400000000093C74440000000
310
8092DF46400C000000130000002A0100003C000000060000000200000000000020F29741400000000093C744400000008092DF46400000006080A341400000004075CE44400000008092DF46400C00000013000000320100003C00000006000000020000000000006080A341400000004075CE44400000008092DF46400000
310
008047AD4140000000C097D644400000008092DF46400C000000130000003A0100003C00000006000000020000000000008047AD4140000000C097D644400000008092DF46400000008047B54140000000C0FADF44400000008092DF46400C00000013000000420100003C00000006000000020000000000008047B5414000
310
0000C0FADF44400000008092DF46400000006080BB4140000000209EEA44400000008092DF46400C000000130000004A0100003C00000006000000020000000000006080BB4140000000209EEA44400000008092DF464000000020F2BF4140000000E081F644400000008092DF46400C00000013000000520100003C000000
310
060000000200000000000020F2BF4140000000E081F644400000008092DF4640000000C09CC2414000000000A60345400000008092DF46400C000000130000005A0100003C00000006000000020000000000006080C34140000000800A1245400000008092DF4640000000C09CC2414000000000A60345400000008092DF46
310
400C00000013000000620100003C00000006000000020000000000006080C34140000000800A1245400000008092DF464000000060B88E3440000000800A124540000000A092DF46400C000000130000006A0100003C000000060000000200000000000040B88E344000000020EEB74440000000A092DF464000000060B88E
310
3440000000800A124540000000A092DF46400C00000013000000720100003C000000060000000200000000000060B88E3440000000800A124540000000A092DF46400000000008613BC0000000C00A124540000000E092DF46400C000000130000007A0100003C00000006000000020000000000000008613BC0000000C00A
310
124540000000E092DF464000000000415F3BC000000020A6034540000000E092DF46400C00000013000000820100003C000000060000000200000000000000415F3BC000000020A6034540000000E092DF464000000080EB593BC00000000082F64440000000E092DF46400C000000130000008A0100003C00000006000000
310
0200000000000080EB593BC00000000082F64440000000E092DF46400000000008513BC0000000409EEA4440000000E092DF46400C00000013000000920100003C00000006000000020000000000000008513BC0000000409EEA4440000000E092DF46400000004096443BC0000000E0FADF4440000000E092DF46400C0000
310
00130000009A0100003C00000006000000020000000000004096443BC0000000E0FADF4440000000E092DF46400000004096343BC0000000E097D64440000000E092DF46400C00000013000000A20100003C00000006000000020000000000004096343BC0000000E097D64440000000E092DF46400000000008213BC00000
310
006075CE4440000000E092DF46400C00000013000000AA0100003C00000006000000020000000000000008213BC00000006075CE4440000000E092DF464000000080EB093BC00000002093C74440000000E092DF46400C00000013000000B20100003C000000060000000200000000000080EB093BC00000002093C7444000
310
0000E092DF46400000000041EF3AC000000060F1C14440000000E092DF46400C00000013000000BA0100003C00000006000000020000000000000041EF3AC000000060F1C14440000000E092DF46400000000008D13AC00000000090BD4440000000E092DF46400C00000013000000C20100003C0000000600000002000000
310
0000000008D13AC00000000090BD4440000000E092DF46400000000041AF3AC0000000006FBA4440000000E092DF46400C00000013000000CA0100003C00000006000000020000000000000041AF3AC0000000006FBA4440000000E092DF464000000080EB893AC0000000608EB84440000000E092DF46400C000000130000
310
00D20100003C00000006000000020000000000000008613AC000000040EEB74440000000E092DF464000000080EB893AC0000000608EB84440000000E092DF46400C00000013000000DA0100003C00000006000000020000000000000008613AC000000040EEB74440000000E092DF464000000040B88E344000000020EEB7
310
4440000000A092DF46400C00000013000000E20100003C00000006000000020000000000002080C34140000000A00A12454000000080070E13400000006080C34140000000800A1245400000008092DF46400C00000013000000EA0100003C000000060000000200000000000000B88E3440000000A00A1245400000000008
310
0E134000000060B88E3440000000800A124540000000A092DF46400C00000013000000F20100003C0000000600000002000000000000A09CC2414000000020A603454000000080070E1340000000C09CC2414000000000A60345400000008092DF46400C00000013000000FA0100003C000000060000000200000000000080
310
415F3BC000000040A6034540000000000A0E134000000000415F3BC000000020A6034540000000E092DF46400C00000013000000020200003C00000006000000020000000000008008613BC0000000E00A124540000000000A0E13400000000008613BC0000000C00A124540000000E092DF46400C000000130000000A0200
310
003C0000000600000002000000000000E0F1BF41400000000082F6444000000080070E134000000020F2BF4140000000E081F644400000008092DF46400C00000013000000120200003C00000006000000020000000000002080BB4140000000409EEA444000000080070E13400000006080BB4140000000209EEA44400000
310
008092DF46400C000000130000001A0200003C00000006000000020000000000004047B54140000000E0FADF444000000080070E13400000008047B54140000000C0FADF44400000008092DF46400C00000013000000220200003C00000006000000020000000000004047AD4140000000E097D6444000000080070E134000
310
00008047AD4140000000C097D644400000008092DF46400C000000130000002A0200003C00000006000000020000000000002080A341400000006075CE444000000080070E13400000006080A341400000004075CE44400000008092DF46400C00000013000000320200003C0000000600000002000000000000E0F1974140
310
0000002093C7444000000080070E134000000020F29741400000000093C744400000008092DF46400C000000130000003A0200003C0000000600000002000000000000A09C8A414000000060F1C1444000000080070E1340000000C09C8A414000000040F1C144400000008092DF46400C00000013000000420200003C0000
310
00060000000200000000000020807B41400000000090BD444000000080070E134000000060807B4140000000E08FBD44400000008092DF46400C000000130000004A0200003C0000000600000002000000000000A09C6A4140000000006FBA444000000080070E1340000000C09C6A4140000000E06EBA44400000008092DF
310
46400C00000013000000520200003C0000000600000002000000000000E0F1574140000000608EB8444000000080070E134000000020F2574140000000408EB844400000008092DF46400C000000130000005A0200003C000000060000000200000000000000EC593BC00000002082F64440000000000A0E134000000080EB
310
593BC00000000082F64440000000E092DF46400C00000013000000620200003C00000006000000020000000000008008513BC0000000609EEA4440000000000A0E13400000000008513BC0000000409EEA4440000000E092DF46400C000000130000006A0200003C0000000600000002000000000000C096443BC000000000
310
FBDF4440000000000A0E13400000004096443BC0000000E0FADF4440000000E092DF46400C00000013000000720200003C0000000600000002000000000000C096343BC00000000098D64440000000000A0E13400000004096343BC0000000E097D64440000000E092DF46400C000000130000007A0200003C000000060000
310
00020000000000008008213BC00000008075CE4440000000000A0E13400000000008213BC00000006075CE4440000000E092DF46400C00000013000000820200003C000000060000000200000000000000EC093BC00000004093C74440000000000A0E134000000080EB093BC00000002093C74440000000E092DF46400C00
310
0000130000008A0200003C00000006000000020000000000008041EF3AC000000080F1C14440000000000A0E13400000000041EF3AC000000060F1C14440000000E092DF46400C00000013000000920200003C00000006000000020000000000008008D13AC00000002090BD4440000000000A0E13400000000008D13AC000
310
00000090BD4440000000E092DF46400C000000130000009A0200003C00000006000000020000000000008041AF3AC0000000206FBA4440000000000A0E13400000000041AF3AC0000000006FBA4440000000E092DF46400C00000013000000A20200003C000000060000000200000000000000EC893AC0000000808EB84440
310
000000000A0E134000000080EB893AC0000000608EB84440000000E092DF46400C00000013000000AA0200003C00000006000000020000000000000008613AC000000040EEB74440000000E092DF46400000008008613AC000000060EEB74440000000000A0E13400C00000013000000B20200003C00000006000000020000
310
0000000080209334400000002037B64440000000A08BFE314000000080209334400000002037B644400000006069F932400C00000013000000BA0200003C000000060000000200000000000080209334400000002037B644400000006069F9324000000040EC3841400000000037B644400000004069F932400C0000001300
310
0000C20200003C000000060000000200000000000040EC3841400000000037B64440000000808BFE314000000040EC3841400000000037B644400000004069F932400C00000013000000CA0200003C000000060000000200000000000080209334400000002037B64440000000A08BFE314000000040EC3841400000000037
310
B64440000000808BFE31400C00000013000000D20200003C0000000600000002000000000000602093344000000020F6C84140000000A08BFE314000000020EC38414000000000F6C84140000000808BFE31400C00000013000000DA0200003C000000060000000200000000000020EC38414000000000F6C8414000000080
310
8BFE314000000020EC38414000000000F6C841400000004069F932400C00000013000000E20200003C0000000600000002000000000000602093344000000020F6C841400000006069F9324000000020EC38414000000000F6C841400000004069F932400C00000013000000EA0200003C0000000600000002000000000000
310
602093344000000020F6C84140000000A08BFE3140000000602093344000000020F6C841400000006069F932400C00000013000000F20200003C000000060000000200000000000040EC3841400000000037B64440000000808BFE314000000020EC38414000000000F6C84140000000808BFE31400C00000013000000FA02
310
00003C000000060000000200000000000080209334400000002037B64440000000A08BFE3140000000602093344000000020F6C84140000000A08BFE31400C00000013000000020300003C000000060000000200000000000040EC3841400000000037B644400000004069F9324000000020EC38414000000000F6C8414000
310
00004069F932400C000000130000000A0300003C000000060000000200000000000080209334400000002037B644400000006069F93240000000602093344000000020F6C841400000006069F932400C00000013000000120300003C000000060000000200000000000080209334400000002037B6444000000040E6DC3F40
310
00000080209334400000002037B6444000000000E26B40400C000000130000001A0300003C000000060000000200000000000080209334400000002037B6444000000000E26B404000000040EC3841400000000037B6444000000000E26B40400C00000013000000220300003C000000060000000200000000000040EC3841
310
400000000037B6444000000020E6DC3F4000000040EC3841400000000037B6444000000000E26B40400C000000130000002A0300003C000000060000000200000000000080209334400000002037B6444000000040E6DC3F4000000040EC3841400000000037B6444000000020E6DC3F400C00000013000000320300003C00
310
00000600000002000000000000802093344000000000F6C8414000000040E6DC3F4000000040EC38414000000000F6C8414000000020E6DC3F400C000000130000003A0300003C000000060000000200000000000040EC38414000000000F6C8414000000020E6DC3F4000000040EC38414000000000F6C84140000000E0E1
310
6B40400C00000013000000420300003C0000000600000002000000000000802093344000000000F6C8414000000000E26B404000000040EC38414000000000F6C84140000000E0E16B40400C000000130000004A0300003C0000000600000002000000000000802093344000000000F6C8414000000040E6DC3F4000000080
310
2093344000000000F6C8414000000000E26B40400C00000013000000520300003C000000060000000200000000000040EC3841400000000037B6444000000020E6DC3F4000000040EC38414000000000F6C8414000000020E6DC3F400C000000130000005A0300003C00000006000000020000000000008020933440000000
310
2037B6444000000040E6DC3F40000000802093344000000000F6C8414000000040E6DC3F400C00000013000000620300003C000000060000000200000000000040EC3841400000000037B6444000000000E26B404000000040EC38414000000000F6C84140000000E0E16B40400C000000130000006A0300003C0000000600
310
00000200000000000080209334400000002037B6444000000000E26B4040000000802093344000000000F6C8414000000000E26B40400C00000013000000720300003C000000060000000200000000000000A0A50AC0000000A00A124540000000E0013C3B4000000000DAA70BC0000000A00A12454000000020FE493B400C
310
000000130000007A0300003C000000060000000200000000000000DAA70BC0000000A00A12454000000020FE493B4000000000BCB80CC0000000A00A124540000000C043543B400C00000013000000820300003C000000060000000200000000000000BCB80CC0000000A00A124540000000C043543B40000000005AD10DC0
310
000000A00A12454000000060725A3B400C000000130000008A0300003C0000000600000002000000000000005AD10DC0000000A00A12454000000060725A3B400000000040ED0EC0000000C00A12454000000040735C3B400C00000013000000920300003C00000006000000020000000000000040ED0EC0000000C00A1245
310
4000000040735C3B40000000002A0410C0000000C00A124540000000E0455A3B400C000000130000009A0300003C0000000600000002000000000000002A0410C0000000C00A124540000000E0455A3B4000000000229610C0000000C00A124540000000E0AA533B400C00000013000000A20300003C000000060000000200
310
000000000000229610C0000000C00A124540000000E0AA533B4000000000382111C0000000C00A12454000000000D5483B400C00000013000000AA0300003C000000060000000200000000000000382111C0000000C00A12454000000000D5483B400000000011A611C0000000C00A12454000000060E2393B400C00000013
310
000000B20300003C00000006000000020000000000000011A611C0000000C00A12454000000060E2393B4000000000BE2212C0000000C00A124540000000E00A273B400C00000013000000BA0300003C000000060000000200000000000000BE2212C0000000C00A124540000000E00A273B40000000006A9512C0000000C0
310
0A124540000000E094103B400C00000013000000C20300003C0000000600000002000000000000006A9512C0000000C00A124540000000E094103B40000000006EFC12C0000000C00A12454000000000D4F63A400C00000013000000CA0300003C0000000600000002000000000000006EFC12C0000000C00A124540000000
310
00D4F63A4000000000E84B13C0000000C00A1245400000006077DD3A400C00000013000000D20300003C000000060000000200000000000000E84B13C0000000C00A1245400000006077DD3A4000000000649913C0000000C00A124540000000A066BE3A400C00000013000000DA0300003C00000006000000020000000000
310
0000649913C0000000C00A124540000000A066BE3A40000000006ED613C0000000C00A124540000000E0AA9D3A400C00000013000000E20300003C0000000600000002000000000000006ED613C0000000C00A124540000000E0AA9D3A4000000000180314C0000000C00A124540000000A0907B3A400C00000013000000EA
310
0300003C000000060000000200000000000000180314C0000000C00A124540000000A0907B3A4000000000082314C0000000C00A124540000000802E533A400C00000013000000F20300003C000000060000000200000000000000082314C0000000C00A124540000000802E533A4000000000D42B14C0000000C00A124540
310
000000E0D32E3A400C00000013000000FA0300003C000000060000000200000000000000D42B14C0000000C00A124540000000E0D32E3A4000000000082314C0000000C00A12454000000020790A3A400C00000013000000020400003C000000060000000200000000000000082314C0000000C00A12454000000020790A3A
310
4000000000C60814C0000000C00A12454000000040A6E639400C000000130000000A0400003C000000060000000200000000000000C60814C0000000C00A12454000000040A6E63940000000006EDD13C0000000C00A124540000000A0E0C339400C00000013000000120400003C0000000600000002000000000000006EDD
310
13C0000000C00A124540000000A0E0C3394000000000A4A113C0000000C00A12454000000060AAA239400C000000130000001A0400003C000000060000000200000000000000A4A113C0000000C00A12454000000060AAA2394000000000465613C0000000C00A124540000000607F8339400C00000013000000220400003C
310
000000060000000200000000000000465613C0000000C00A124540000000607F833940000000006EFC12C0000000C00A124540000000E0D36639400C000000130000002A0400003C0000000600000002000000000000006EFC12C0000000C00A124540000000E0D3663940000000006A9512C0000000C00A12454000000000
310
134D39400C00000013000000320400003C0000000600000002000000000000006A9512C0000000C00A12454000000000134D394000000000BC2212C0000000C00A124540000000E09C3639400C000000130000003A0400003C000000060000000200000000000000BC2212C0000000C00A124540000000E09C363940000000
310
0011A611C0000000C00A12454000000060C52339400C00000013000000420400003C00000006000000020000000000000011A611C0000000C00A12454000000060C523394000000000382111C0000000C00A124540000000E0D21439400C000000130000004A0400003C000000060000000200000000000000382111C00000
310
00C00A124540000000E0D214394000000000209610C0000000C00A124540000000E0FC0939400C00000013000000520400003C000000060000000200000000000000209610C0000000C00A124540000000E0FC09394000000000B91210C0000000C00A124540000000C0F70339400C000000130000005A0400003C00000006
310
0000000200000000000000B91210C0000000C00A124540000000C0F703394000000000D4EA0EC0000000C00A12454000000060390139400C00000013000000620400003C000000060000000200000000000000D4EA0EC0000000C00A12454000000060390139400000000000C80DC0000000C00A124540000000406C033940
310
0C000000130000006A0400003C00000006000000020000000000000000C80DC0000000C00A124540000000406C0339400000000068A90CC0000000C00A12454000000000FD0939400C00000013000000720400003C00000006000000020000000000000068A90CC0000000C00A12454000000000FD093940000000003C930B
310
C0000000C00A124540000000E0D21439400C000000130000007A0400003C0000000600000002000000000000003C930BC0000000C00A124540000000E0D21439400000000086890AC0000000C00A12454000000060C52339400C00000013000000820400003C00000006000000020000000000000086890AC0000000C00A12
310
454000000060C5233940000000002E9009C0000000C00A124540000000E09C3639400C000000130000008A0400003C0000000600000002000000000000002E9009C0000000C00A124540000000E09C36394000000000D4AA08C0000000C00A12454000000000134D39400C00000013000000920400003C0000000600000002
310
00000000000000D4AA08C0000000C00A12454000000000134D394000000000CCDC07C0000000C00A12454000000000D46639400C000000130000009A0400003C000000060000000200000000000000CCDC07C0000000C00A12454000000000D4663940000000001A2907C0000000C00A124540000000407F8339400C000000
310
13000000A20400003C0000000600000002000000000000001A2907C0000000C00A124540000000407F83394000000000609206C0000000C00A12454000000080AAA239400C00000013000000AA0400003C000000060000000200000000000000609206C0000000C00A12454000000080AAA2394000000000CC1A06C0000000
310
C00A124540000000E0E0C339400C00000013000000B20400003C000000060000000200000000000000CC1A06C0000000C00A124540000000E0E0C33940000000001CC405C0000000C00A12454000000040A6E639400C00000013000000BA0400003C0000000600000002000000000000001CC405C0000000C00A1245400000
310
0040A6E6394000000000968F05C0000000C00A12454000000060790A3A400C00000013000000C20400003C000000060000000200000000000000B88E3440000000A00A12454000000000080E134000000000968F05C0000000C00A12454000000060790A3A400C00000013000000CA0400003C000000060000000200000000
310
000060B88E3440000000800A124540000000A092DF464000000000968F05C0000000C00A12454000000060790A3A400C00000013000000D20400003C000000060000000200000000000000007E05C0000000A00A124540000000E0D32E3A4000000000968F05C0000000C00A12454000000060790A3A400C00000013000000
310
DA0400003C000000060000000200000000000000007E05C0000000A00A124540000000E0D32E3A4000000000988F05C0000000A00A124540000000A02E533A400C00000013000000E20400003C000000060000000200000000000000988F05C0000000A00A124540000000A02E533A40000000001CC405C0000000A00A1245
310
40000000A001773A400C00000013000000EA0400003C0000000600000002000000000000001CC405C0000000A00A124540000000A001773A4000000000CC1A06C0000000A00A12454000000040C7993A400C00000013000000F20400003C000000060000000200000000000000CC1A06C0000000A00A12454000000040C799
310
3A4000000000609206C0000000A00A12454000000080FDBA3A400C00000013000000FA0400003C000000060000000200000000000000609206C0000000A00A12454000000080FDBA3A40000000001C2907C0000000A00A124540000000A028DA3A400C00000013000000020500003C0000000600000002000000000000001C
310
2907C0000000A00A124540000000A028DA3A4000000000CCDC07C0000000A00A12454000000000D4F63A400C000000130000000A0500003C000000060000000200000000000000CCDC07C0000000A00A12454000000000D4F63A4000000000D4AA08C0000000A00A124540000000E094103B400C0000001300000012050000
310
3C000000060000000200000000000000D4AA08C0000000A00A124540000000E094103B4000000000A49509C0000000A00A124540000000E00A263B400C000000130000001A0500003C000000060000000200000000000000A0A50AC0000000A00A124540000000E0013C3B4000000000A49509C0000000A00A124540000000
310
E00A263B400C00000013000000220500003C000000060000000200000000000000BE2212C0000000C00A124540000000E00A273B4000000000809212C0000000C00A12454000000040C20F3B400C000000130000002A0500003C0000000600000002000000000000006EFC12C0000000C00A12454000000000D4F63A400000
310
0000809212C0000000C00A12454000000040C20F3B400C00000013000000320500003C0000000600000002000000000000001CC405C0000000C00A12454000000040A6E6394000000000549805C0000000A00A124540000000409B0A3A400C000000130000003A0500003C000000060000000200000000000000007E05C000
310
0000A00A124540000000E0D32E3A4000000000549805C0000000A00A124540000000409B0A3A400C00000013000000420500003C000000060000000200000000000000219610C000000040EEB74440000000E0FC0939400000000098E00FC000000040EEB7444000000020640239400C000000130000004A0500003C000000
310
060000000200000000000000362111C000000040EEB74440000000A0D214394000000000219610C000000040EEB74440000000E0FC0939400C00000013000000520500003C00000006000000020000000000000010A611C000000040EEB7444000000060C523394000000000362111C000000040EEB74440000000A0D21439
310
400C000000130000005A0500003C000000060000000200000000000000BC2212C000000040EEB74440000000C09C3639400000000010A611C000000040EEB7444000000060C52339400C00000013000000620500003C0000000600000002000000000000006A9512C000000040EEB74440000000E0124D394000000000BC22
310
12C000000040EEB74440000000C09C3639400C000000130000006A0500003C0000000600000002000000000000006EFC12C000000040EEB74440000000E0D3663940000000006A9512C000000040EEB74440000000E0124D39400C00000013000000720500003C000000060000000200000000000000475613C000000040EE
310
B74440000000207F833940000000006EFC12C000000040EEB74440000000E0D36639400C000000130000007A0500003C000000060000000200000000000000A4A113C000000040EEB7444000000080AAA2394000000000475613C000000040EEB74440000000207F8339400C00000013000000820500003C00000006000000
310
02000000000000006DDD13C000000040EEB74440000000A0E0C3394000000000A4A113C000000040EEB7444000000080AAA239400C000000130000008A0500003C000000060000000200000000000000C60814C000000040EEB7444000000040A6E63940000000006DDD13C000000040EEB74440000000A0E0C339400C0000
310
0013000000920500003C000000060000000200000000000000092314C000000040EEB7444000000020790A3A4000000000C60814C000000040EEB7444000000040A6E639400C000000130000009A0500003C000000060000000200000000000000D52B14C000000040EEB74440000000E0D32E3A4000000000092314C00000
310
0040EEB7444000000020790A3A400C00000013000000A20500003C000000060000000200000000000000092314C000000040EEB74440000000802E533A4000000000D52B14C000000040EEB74440000000E0D32E3A400C00000013000000AA0500003C000000060000000200000000000000C10E14C000000040EEB7444000
310
0000A034723A4000000000092314C000000040EEB74440000000802E533A400C00000013000000B20500003C0000000600000002000000000000009EE813C000000040EEB74440000000C091933A4000000000C10E14C000000040EEB74440000000A034723A400C00000013000000BA0500003C0000000600000002000000
310
00000000C4B313C000000040EEB74440000000807EB33A40000000009EE813C000000040EEB74440000000C091933A400C00000013000000C20500003C000000060000000200000000000000AA7413C000000040EEB74440000000C075D03A4000000000C4B313C000000040EEB74440000000807EB33A400C000000130000
310
00CA0500003C0000000600000002000000000000006B9512C000000040EEB74440000000E094103B4000000000AA7413C000000040EEB74440000000C075D03A400C00000013000000D20500003C000000060000000200000000000000BE2212C000000040EEB74440000000000B273B40000000006B9512C000000040EEB7
310
4440000000E094103B400C00000013000000DA0500003C00000006000000020000000000000011A611C000000040EEB7444000000040E2393B4000000000BE2212C000000040EEB74440000000000B273B400C00000013000000E20500003C000000060000000200000000000000392111C000000040EEB74440000000E0D4
310
483B400000000011A611C000000040EEB7444000000040E2393B400C00000013000000EA0500003C000000060000000200000000000000209610C000000040EEB74440000000E0AA533B4000000000392111C000000040EEB74440000000E0D4483B400C00000013000000F20500003C000000060000000200000000000000
310
D2880EC000000040EEB74440000000C0B05B3B4000000000209610C000000040EEB74440000000E0AA533B400C00000013000000FA0500003C00000006000000020000000000000090720DC000000040EEB74440000000A046583B4000000000D2880EC000000040EEB74440000000C0B05B3B400C00000013000000020600
310
003C000000060000000200000000000000A45E0CC000000040EEB7444000000060C1503B400000000090720DC000000040EEB74440000000A046583B400C000000130000000A0600003C000000060000000200000000000000DC4F0BC000000040EEB74440000000C00A453B4000000000A45E0CC000000040EEB744400000
310
0060C1503B400C00000013000000120600003C000000060000000200000000000000B2460AC000000040EEB74440000000A0D5343B4000000000DC4F0BC000000040EEB74440000000C00A453B400C000000130000001A0600003C000000060000000200000000000000708509C000000040EEB74440000000003B263B4000
310
000000B2460AC000000040EEB74440000000A0D5343B400C00000013000000220600003C000000060000000200000000000000D4AA08C000000040EEB74440000000E094103B4000000000708509C000000040EEB74440000000003B263B400C000000130000002A0600003C000000060000000200000000000000CCDC07C0
310
00000040EEB7444000000020D4F63A4000000000D4AA08C000000040EEB74440000000E094103B400C00000013000000320600003C0000000600000002000000000000001A2907C000000040EEB74440000000C028DA3A4000000000CCDC07C000000040EEB7444000000020D4F63A400C000000130000003A0600003C0000
310
00060000000200000000000000629206C000000040EEB7444000000060FDBA3A40000000001A2907C000000040EEB74440000000C028DA3A400C00000013000000420600003C000000060000000200000000000000CA1A06C000000040EEB7444000000040C7993A4000000000629206C000000040EEB7444000000060FDBA
310
3A400C000000130000004A0600003C0000000600000002000000000000001CC405C000000040EEB74440000000A001773A4000000000CA1A06C000000040EEB7444000000040C7993A400C00000013000000520600003C0000000600000002000000000000009A8F05C000000040EEB74440000000A02E533A40000000001C
310
C405C000000040EEB74440000000A001773A400C000000130000005A0600003C0000000600000002000000000000009A8F05C000000040EEB74440000000A02E533A4000000000027E05C000000040EEB74440000000E0D32E3A400C00000013000000620600003C000000060000000200000000000000027E05C000000040
310
EEB74440000000E0D32E3A40000000009A8F05C000000040EEB7444000000060790A3A400C000000130000006A0600003C0000000600000002000000000000E0B78E344000000040EEB7444000000000080E1340000000009A8F05C000000040EEB7444000000060790A3A400C00000013000000720600003C000000060000
310
00020000000000008008613AC000000060EEB74440000000000A0E1340000000009A8F05C000000040EEB7444000000060790A3A400C000000130000007A0600003C0000000600000002000000000000001CC405C000000040EEB7444000000040A6E63940000000009A8F05C000000040EEB7444000000060790A3A400C00
310
000013000000820600003C000000060000000200000000000000CC1A06C000000040EEB7444000000000E1C33940000000001CC405C000000040EEB7444000000040A6E639400C000000130000008A0600003C000000060000000200000000000000609206C000000040EEB7444000000060AAA2394000000000CC1A06C000
310
000040EEB7444000000000E1C339400C00000013000000920600003C0000000600000002000000000000001C2907C000000040EEB74440000000207F83394000000000609206C000000040EEB7444000000060AAA239400C000000130000009A0600003C000000060000000200000000000000CCDC07C000000040EEB74440
310
000000E0D3663940000000001C2907C000000040EEB74440000000207F8339400C00000013000000A20600003C000000060000000200000000000000D4AA08C000000040EEB74440000000E0124D394000000000CCDC07C000000040EEB74440000000E0D36639400C00000013000000AA0600003C00000006000000020000
310
0000000000309009C000000040EEB74440000000E09C36394000000000D4AA08C000000040EEB74440000000E0124D39400C00000013000000B20600003C00000006000000020000000000000088890AC000000040EEB7444000000060C523394000000000309009C000000040EEB74440000000E09C3639400C0000001300
310
0000BA0600003C0000000600000002000000000000003C930BC000000040EEB74440000000E0D21439400000000088890AC000000040EEB7444000000060C52339400C00000013000000C20600003C00000006000000020000000000000068A90CC000000040EEB7444000000000FD093940000000003C930BC000000040EE
310
B74440000000E0D21439400C00000013000000CA0600003C00000006000000020000000000000000C80DC000000040EEB74440000000406C0339400000000068A90CC000000040EEB7444000000000FD0939400C00000013000000D20600003C000000060000000200000000000000D6EA0EC000000040EEB7444000000060
310
390139400000000000C80DC000000040EEB74440000000406C0339400C00000013000000DA0600003C00000006000000020000000000000098E00FC000000040EEB74440000000206402394000000000D6EA0EC000000040EEB7444000000060390139400C00000013000000E20600003C0000000600000002000000000000
310
001CC405C0000000A00A124540000000A001773A40000000001CC405C0000000403C0E4540000000A001773A400C00000013000000EA0600003C000000060000000200000000000000988F05C0000000A00A124540000000A02E533A4000000000988F05C0000000403C0E4540000000A02E533A400C00000013000000F206
310
00003C000000060000000200000000000000988F05C0000000403C0E4540000000A02E533A40000000001CC405C0000000403C0E4540000000A001773A400C00000013000000FA0600003C000000060000000200000000000000609206C0000000A00A12454000000080FDBA3A4000000000609206C0000000403C0E454000
310
000080FDBA3A400C00000013000000020700003C000000060000000200000000000000CC1A06C0000000A00A12454000000040C7993A4000000000CC1A06C0000000403C0E454000000020C7993A400C000000130000000A0700003C000000060000000200000000000000CC1A06C0000000403C0E454000000020C7993A40
310
00000000609206C0000000403C0E454000000080FDBA3A400C00000013000000120700003C000000060000000200000000000000CCDC07C0000000A00A12454000000000D4F63A4000000000CCDC07C0000000403C0E454000000000D4F63A400C000000130000001A0700003C0000000600000002000000000000001C2907
310
C0000000A00A124540000000A028DA3A40000000001C2907C0000000403C0E45400000008028DA3A400C00000013000000220700003C0000000600000002000000000000001C2907C0000000403C0E45400000008028DA3A4000000000CCDC07C0000000403C0E454000000000D4F63A400C000000130000002A0700003C00
310
0000060000000200000000000000309009C0000000403C0E4540000000000B273B4000000000A49509C0000000A00A124540000000E00A263B400C00000013000000320700003C000000060000000200000000000000D4AA08C0000000A00A124540000000E094103B4000000000D4AA08C0000000403C0E4540000000E094
310
103B400C000000130000003A0700003C000000060000000200000000000000D4AA08C0000000403C0E4540000000E094103B4000000000309009C0000000403C0E4540000000000B273B400C00000013000000420700003C000000060000000200000000000000DAA70BC0000000A00A12454000000020FE493B4000000000
310
3A930BC0000000403C0E454000000000D5483B400C000000130000004A0700003C000000060000000200000000000000A0A50AC0000000A00A124540000000E0013C3B400000000088890AC0000000403C0E454000000080E2393B400C00000013000000520700003C00000006000000020000000000000088890AC0000000
310
403C0E454000000080E2393B40000000003A930BC0000000403C0E454000000000D5483B400C000000130000005A0700003C0000000600000002000000000000005AD10DC0000000A00A12454000000060725A3B4000000000FEC70DC0000000403C0E4540000000803B5A3B400C00000013000000620700003C0000000600
310
00000200000000000000BCB80CC0000000A00A124540000000C043543B400000000066A90CC0000000403C0E4540000000E0AA533B400C000000130000006A0700003C00000006000000020000000000000066A90CC0000000403C0E4540000000E0AA533B4000000000FEC70DC0000000403C0E4540000000803B5A3B400C
310
00000013000000720700003C0000000600000002000000000000002A0410C0000000C00A124540000000E0455A3B4000000000D50610C0000000403C0E4540000000803B5A3B400C000000130000007A0700003C00000006000000020000000000000040ED0EC0000000C00A12454000000040735C3B4000000000D4EA0EC0
310
000000403C0E4540000000806E5C3B400C00000013000000820700003C000000060000000200000000000000D4EA0EC0000000403C0E4540000000806E5C3B4000000000D50610C0000000403C0E4540000000803B5A3B400C000000130000008A0700003C000000060000000200000000000000382111C0000000C00A1245
310
4000000000D5483B4000000000372111C0000000403C0E454000000000D5483B400C00000013000000920700003C000000060000000200000000000000229610C0000000C00A124540000000E0AA533B4000000000219610C0000000403C0E4540000000E0AA533B400C000000130000009A0700003C000000060000000200
310
000000000000219610C0000000403C0E4540000000E0AA533B4000000000372111C0000000403C0E454000000000D5483B400C00000013000000A20700003C000000060000000200000000000000BE2212C0000000C00A124540000000E00A273B4000000000BD2212C0000000403C0E4540000000000B273B400C00000013
310
000000AA0700003C00000006000000020000000000000011A611C0000000C00A12454000000060E2393B400000000010A611C0000000403C0E454000000080E2393B400C00000013000000B20700003C00000006000000020000000000000010A611C0000000403C0E454000000080E2393B4000000000BD2212C000000040
310
3C0E4540000000000B273B400C00000013000000BA0700003C0000000600000002000000000000006EFC12C0000000C00A12454000000000D4F63A40000000006EFC12C0000000403C0E454000000000D4F63A400C00000013000000C20700003C0000000600000002000000000000006A9512C0000000403C0E4540000000
310
E094103B4000000000809212C0000000C00A12454000000040C20F3B400C00000013000000CA0700003C0000000600000002000000000000006A9512C0000000403C0E4540000000E094103B40000000006EFC12C0000000403C0E454000000000D4F63A400C00000013000000D20700003C00000006000000020000000000
310
0000649913C0000000C00A124540000000A066BE3A4000000000A4A113C0000000403C0E454000000060FDBA3A400C00000013000000DA0700003C000000060000000200000000000000E84B13C0000000C00A1245400000006077DD3A4000000000465613C0000000403C0E45400000008028DA3A400C00000013000000E2
310
0700003C000000060000000200000000000000465613C0000000403C0E45400000008028DA3A4000000000A4A113C0000000403C0E454000000060FDBA3A400C00000013000000EA0700003C000000060000000200000000000000180314C0000000C00A124540000000A0907B3A4000000000C60814C0000000403C0E4540
310
0000008001773A400C00000013000000F20700003C0000000600000002000000000000006ED613C0000000C00A124540000000E0AA9D3A40000000006FDD13C0000000403C0E454000000020C7993A400C00000013000000FA0700003C0000000600000002000000000000006FDD13C0000000403C0E454000000020C7993A
310
4000000000C60814C0000000403C0E45400000008001773A400C00000013000000020800003C000000060000000200000000000000D42B14C0000000C00A124540000000E0D32E3A4000000000D42B14C0000000403C0E4540000000E0D32E3A400C000000130000000A0800003C0000000600000002000000000000000823
310
14C0000000C00A124540000000802E533A4000000000092314C0000000403C0E4540000000802E533A400C00000013000000120800003C000000060000000200000000000000092314C0000000403C0E4540000000802E533A4000000000D42B14C0000000403C0E4540000000E0D32E3A400C000000130000001A0800003C
310
000000060000000200000000000000C60814C0000000C00A12454000000040A6E6394000000000C60814C0000000403C0E454000000020A6E639400C00000013000000220800003C000000060000000200000000000000082314C0000000C00A12454000000020790A3A4000000000082314C0000000403C0E454000000020
310
790A3A400C000000130000002A0800003C000000060000000200000000000000082314C0000000403C0E454000000020790A3A4000000000C60814C0000000403C0E454000000020A6E639400C00000013000000320800003C000000060000000200000000000000A4A113C0000000C00A12454000000060AAA23940000000
310
00A4A113C0000000403C0E454000000060AAA239400C000000130000003A0800003C0000000600000002000000000000006EDD13C0000000C00A124540000000A0E0C33940000000006EDD13C0000000403C0E4540000000A0E0C339400C00000013000000420800003C0000000600000002000000000000006EDD13C00000
310
00403C0E4540000000A0E0C3394000000000A4A113C0000000403C0E454000000060AAA239400C000000130000004A0800003C0000000600000002000000000000006EFC12C0000000C00A124540000000E0D3663940000000006EFC12C0000000403C0E4540000000C0D36639400C00000013000000520800003C00000006
310
0000000200000000000000465613C0000000C00A124540000000607F83394000000000465613C0000000403C0E4540000000407F8339400C000000130000005A0800003C000000060000000200000000000000465613C0000000403C0E4540000000407F833940000000006EFC12C0000000403C0E4540000000C0D3663940
310
0C00000013000000620800003C000000060000000200000000000000BC2212C0000000C00A124540000000E09C36394000000000BC2212C0000000403C0E4540000000E09C3639400C000000130000006A0800003C0000000600000002000000000000006A9512C0000000C00A12454000000000134D3940000000006A9512
310
C0000000403C0E4540000000E0124D39400C00000013000000720800003C0000000600000002000000000000006A9512C0000000403C0E4540000000E0124D394000000000BC2212C0000000403C0E4540000000E09C3639400C000000130000007A0800003C000000060000000200000000000000382111C0000000C00A12
310
4540000000E0D214394000000000372111C0000000403C0E4540000000C0D21439400C00000013000000820800003C00000006000000020000000000000011A611C0000000C00A12454000000060C52339400000000010A611C0000000403C0E454000000060C52339400C000000130000008A0800003C0000000600000002
310
0000000000000010A611C0000000403C0E454000000060C523394000000000372111C0000000403C0E4540000000C0D21439400C00000013000000920800003C000000060000000200000000000000B91210C0000000C00A124540000000C0F703394000000000D40610C0000000403C0E4540000000406C0339400C000000
310
130000009A0800003C000000060000000200000000000000209610C0000000C00A124540000000E0FC09394000000000209610C0000000403C0E4540000000E0FC0939400C00000013000000A20800003C000000060000000200000000000000209610C0000000403C0E4540000000E0FC09394000000000D40610C0000000
310
403C0E4540000000406C0339400C00000013000000AA0800003C00000006000000020000000000000000C80DC0000000C00A124540000000406C03394000000000FEC70DC0000000403C0E4540000000606C0339400C00000013000000B20800003C000000060000000200000000000000D4EA0EC0000000C00A1245400000
310
00603901394000000000D4EA0EC0000000403C0E454000000060390139400C00000013000000BA0800003C000000060000000200000000000000D4EA0EC0000000403C0E4540000000603901394000000000FEC70DC0000000403C0E4540000000606C0339400C00000013000000C20800003C000000060000000200000000
310
0000003C930BC0000000C00A124540000000E0D2143940000000003A930BC0000000403C0E4540000000E0D21439400C00000013000000CA0800003C00000006000000020000000000000068A90CC0000000C00A12454000000000FD0939400000000066A90CC0000000403C0E454000000000FD0939400C00000013000000
310
D20800003C00000006000000020000000000000066A90CC0000000403C0E454000000000FD093940000000003A930BC0000000403C0E4540000000E0D21439400C00000013000000DA0800003C0000000600000002000000000000002E9009C0000000C00A124540000000E09C363940000000002E9009C0000000403C0E45
310
40000000009D3639400C00000013000000E20800003C00000006000000020000000000000086890AC0000000C00A12454000000060C52339400000000086890AC0000000403C0E454000000060C52339400C00000013000000EA0800003C00000006000000020000000000000086890AC0000000403C0E454000000060C523
310
3940000000002E9009C0000000403C0E4540000000009D3639400C00000013000000F20800003C000000060000000200000000000000CCDC07C0000000C00A12454000000000D466394000000000CCDC07C0000000403C0E454000000000D46639400C00000013000000FA0800003C000000060000000200000000000000D4
310
AA08C0000000C00A12454000000000134D394000000000D2AA08C0000000403C0E454000000020134D39400C00000013000000020900003C000000060000000200000000000000D2AA08C0000000403C0E454000000020134D394000000000CCDC07C0000000403C0E454000000000D46639400C000000130000000A090000
310
3C000000060000000200000000000000609206C0000000C00A12454000000080AAA2394000000000609206C0000000403C0E454000000080AAA239400C00000013000000120900003C0000000600000002000000000000001A2907C0000000C00A124540000000407F833940000000001A2907C0000000403C0E4540000000
310
607F8339400C000000130000001A0900003C0000000600000002000000000000001A2907C0000000403C0E4540000000607F83394000000000609206C0000000403C0E454000000080AAA239400C00000013000000220900003C0000000600000002000000000000001CC405C0000000C00A12454000000040A6E639400000
310
00001CC405C0000000403C0E454000000060A6E639400C000000130000002A0900003C000000060000000200000000000000CC1A06C0000000C00A124540000000E0E0C3394000000000CA1A06C0000000403C0E4540000000E0E0C339400C00000013000000320900003C000000060000000200000000000000CA1A06C000
310
0000403C0E4540000000E0E0C33940000000001CC405C0000000403C0E454000000060A6E639400C000000130000003A0900003C000000060000000200000000000000988F05C0000000403C0E454000000060790A3A4000000000549805C0000000A00A124540000000409B0A3A400C00000013000000420900003C000000
310
060000000200000000000000007E05C0000000403C0E4540000000E0D32E3A4000000000988F05C0000000403C0E454000000060790A3A400C000000130000004A0900003C000000060000000200000000000000007E05C0000000A00A124540000000E0D32E3A4000000000007E05C0000000403C0E4540000000E0D32E3A
310
400C00000013000000520900003C000000060000000200000000000000988F05C0000000403C0E454000000060790A3A4000000000988F05C000000040EEB7444000000060790A3A400C000000130000005A0900003C000000060000000200000000000000007E05C000000040EEB74440000000E0D32E3A4000000000988F
310
05C000000040EEB7444000000060790A3A400C00000013000000620900003C000000060000000200000000000000007E05C0000000403C0E4540000000E0D32E3A4000000000007E05C000000040EEB74440000000E0D32E3A400C000000130000006A0900003C000000060000000200000000000000007E05C000000040EE
310
B74440000000E0D32E3A4000000000988F05C000000040EEB74440000000A02E533A400C00000013000000720900003C000000060000000200000000000000988F05C0000000403C0E4540000000A02E533A4000000000988F05C000000040EEB74440000000A02E533A400C000000130000007A0900003C00000006000000
310
0200000000000000007E05C0000000403C0E4540000000E0D32E3A4000000000988F05C0000000403C0E4540000000A02E533A400C00000013000000820900003C000000060000000200000000000000988F05C000000040EEB74440000000A02E533A40000000001CC405C000000040EEB74440000000A001773A400C0000
310
00130000008A0900003C0000000600000002000000000000001CC405C0000000403C0E4540000000A001773A40000000001CC405C000000040EEB74440000000A001773A400C00000013000000920900003C0000000600000002000000000000001CC405C000000040EEB74440000000A001773A4000000000CC1A06C00000
310
0040EEB7444000000020C7993A400C000000130000009A0900003C000000060000000200000000000000CC1A06C0000000403C0E454000000020C7993A4000000000CC1A06C000000040EEB7444000000020C7993A400C00000013000000A20900003C0000000600000002000000000000001CC405C0000000403C0E454000
310
0000A001773A4000000000CC1A06C0000000403C0E454000000020C7993A400C00000013000000AA0900003C000000060000000200000000000000CC1A06C000000040EEB7444000000020C7993A4000000000609206C000000040EEB7444000000080FDBA3A400C00000013000000B20900003C0000000600000002000000
310
00000000609206C0000000403C0E454000000080FDBA3A4000000000609206C000000040EEB7444000000080FDBA3A400C00000013000000BA0900003C000000060000000200000000000000609206C000000040EEB7444000000080FDBA3A40000000001C2907C000000040EEB744400000008028DA3A400C000000130000
310
00C20900003C0000000600000002000000000000001C2907C0000000403C0E45400000008028DA3A40000000001C2907C000000040EEB744400000008028DA3A400C00000013000000CA0900003C000000060000000200000000000000609206C0000000403C0E454000000080FDBA3A40000000001C2907C0000000403C0E
310
45400000008028DA3A400C00000013000000D20900003C0000000600000002000000000000001C2907C000000040EEB744400000008028DA3A4000000000CCDC07C000000040EEB7444000000000D4F63A400C00000013000000DA0900003C000000060000000200000000000000CCDC07C0000000403C0E454000000000D4
310
F63A4000000000CCDC07C000000040EEB7444000000000D4F63A400C00000013000000E20900003C000000060000000200000000000000CCDC07C000000040EEB7444000000000D4F63A4000000000D4AA08C000000040EEB74440000000E094103B400C00000013000000EA0900003C000000060000000200000000000000
310
D4AA08C0000000403C0E4540000000E094103B4000000000D4AA08C000000040EEB74440000000E094103B400C00000013000000F20900003C000000060000000200000000000000CCDC07C0000000403C0E454000000000D4F63A4000000000D4AA08C0000000403C0E4540000000E094103B400C00000013000000FA0900
310
003C000000060000000200000000000000D4AA08C000000040EEB74440000000E094103B4000000000309009C000000040EEB74440000000000B273B400C00000013000000020A00003C000000060000000200000000000000309009C0000000403C0E4540000000000B273B4000000000309009C000000040EEB744400000
310
00000B273B400C000000130000000A0A00003C000000060000000200000000000000309009C000000040EEB74440000000000B273B400000000088890AC000000040EEB7444000000080E2393B400C00000013000000120A00003C00000006000000020000000000000088890AC0000000403C0E454000000080E2393B4000
310
00000088890AC000000040EEB7444000000080E2393B400C000000130000001A0A00003C000000060000000200000000000000309009C0000000403C0E4540000000000B273B400000000088890AC0000000403C0E454000000080E2393B400C00000013000000220A00003C00000006000000020000000000000088890AC0
310
00000040EEB7444000000080E2393B40000000003A930BC000000040EEB7444000000000D5483B400C000000130000002A0A00003C0000000600000002000000000000003A930BC0000000403C0E454000000000D5483B40000000003A930BC000000040EEB7444000000000D5483B400C00000013000000320A00003C0000
310
000600000002000000000000003A930BC000000040EEB7444000000000D5483B400000000064A90CC000000040EEB74440000000E0AA533B400C000000130000003A0A00003C00000006000000020000000000000066A90CC0000000403C0E4540000000E0AA533B400000000064A90CC000000040EEB74440000000E0AA53
310
3B400C00000013000000420A00003C0000000600000002000000000000003A930BC0000000403C0E454000000000D5483B400000000066A90CC0000000403C0E4540000000E0AA533B400C000000130000004A0A00003C00000006000000020000000000000064A90CC000000040EEB74440000000E0AA533B4000000000FC
310
C70DC000000040EEB74440000000803B5A3B400C00000013000000520A00003C000000060000000200000000000000FEC70DC0000000403C0E4540000000803B5A3B4000000000FCC70DC000000040EEB74440000000803B5A3B400C000000130000005A0A00003C000000060000000200000000000000FCC70DC000000040
310
EEB74440000000803B5A3B4000000000D4EA0EC000000040EEB74440000000806E5C3B400C00000013000000620A00003C000000060000000200000000000000D4EA0EC0000000403C0E4540000000806E5C3B4000000000D4EA0EC000000040EEB74440000000806E5C3B400C000000130000006A0A00003C000000060000
310
000200000000000000FEC70DC0000000403C0E4540000000803B5A3B4000000000D4EA0EC0000000403C0E4540000000806E5C3B400C00000013000000720A00003C000000060000000200000000000000D4EA0EC000000040EEB74440000000806E5C3B4000000000D40610C000000040EEB74440000000803B5A3B400C00
310
0000130000007A0A00003C000000060000000200000000000000D50610C0000000403C0E4540000000803B5A3B4000000000D40610C000000040EEB74440000000803B5A3B400C00000013000000820A00003C000000060000000200000000000000D40610C000000040EEB74440000000803B5A3B4000000000219610C000
310
000040EEB74440000000E0AA533B400C000000130000008A0A00003C000000060000000200000000000000219610C0000000403C0E4540000000E0AA533B4000000000219610C000000040EEB74440000000E0AA533B400C00000013000000920A00003C000000060000000200000000000000D50610C0000000403C0E4540
310
000000803B5A3B4000000000219610C0000000403C0E4540000000E0AA533B400C000000130000009A0A00003C000000060000000200000000000000219610C000000040EEB74440000000E0AA533B4000000000362111C000000040EEB7444000000000D5483B400C00000013000000A20A00003C00000006000000020000
310
0000000000372111C0000000403C0E454000000000D5483B4000000000362111C000000040EEB7444000000000D5483B400C00000013000000AA0A00003C000000060000000200000000000000362111C000000040EEB7444000000000D5483B400000000010A611C000000040EEB7444000000080E2393B400C0000001300
310
0000B20A00003C00000006000000020000000000000010A611C0000000403C0E454000000080E2393B400000000010A611C000000040EEB7444000000080E2393B400C00000013000000BA0A00003C000000060000000200000000000000372111C0000000403C0E454000000000D5483B400000000010A611C0000000403C
310
0E454000000080E2393B400C00000013000000C20A00003C00000006000000020000000000000010A611C000000040EEB7444000000080E2393B4000000000BD2212C000000040EEB74440000000000B273B400C00000013000000CA0A00003C000000060000000200000000000000BD2212C0000000403C0E454000000000
310
0B273B4000000000BD2212C000000040EEB74440000000000B273B400C00000013000000D20A00003C000000060000000200000000000000BD2212C000000040EEB74440000000000B273B40000000006A9512C000000040EEB74440000000E094103B400C00000013000000DA0A00003C0000000600000002000000000000
310
006A9512C0000000403C0E4540000000E094103B40000000006A9512C000000040EEB74440000000E094103B400C00000013000000E20A00003C000000060000000200000000000000BD2212C0000000403C0E4540000000000B273B40000000006A9512C0000000403C0E4540000000E094103B400C00000013000000EA0A
310
00003C0000000600000002000000000000006A9512C000000040EEB74440000000E094103B40000000006EFC12C000000040EEB7444000000000D4F63A400C00000013000000F20A00003C0000000600000002000000000000006EFC12C0000000403C0E454000000000D4F63A40000000006EFC12C000000040EEB7444000
310
000000D4F63A400C00000013000000FA0A00003C0000000600000002000000000000006EFC12C000000040EEB7444000000000D4F63A4000000000465613C000000040EEB744400000008028DA3A400C00000013000000020B00003C000000060000000200000000000000465613C0000000403C0E45400000008028DA3A40
310
00000000465613C000000040EEB744400000008028DA3A400C000000130000000A0B00003C0000000600000002000000000000006EFC12C0000000403C0E454000000000D4F63A4000000000465613C0000000403C0E45400000008028DA3A400C00000013000000120B00003C000000060000000200000000000000465613
310
C000000040EEB744400000008028DA3A4000000000A4A113C000000040EEB7444000000060FDBA3A400C000000130000001A0B00003C000000060000000200000000000000A4A113C0000000403C0E454000000060FDBA3A4000000000A4A113C000000040EEB7444000000060FDBA3A400C00000013000000220B00003C00
310
0000060000000200000000000000A4A113C000000040EEB7444000000060FDBA3A40000000006FDD13C000000040EEB7444000000020C7993A400C000000130000002A0B00003C0000000600000002000000000000006FDD13C0000000403C0E454000000020C7993A40000000006FDD13C000000040EEB7444000000020C7
310
993A400C00000013000000320B00003C000000060000000200000000000000A4A113C0000000403C0E454000000060FDBA3A40000000006FDD13C0000000403C0E454000000020C7993A400C000000130000003A0B00003C0000000600000002000000000000006FDD13C000000040EEB7444000000020C7993A4000000000
310
C60814C000000040EEB744400000008001773A400C00000013000000420B00003C000000060000000200000000000000C60814C0000000403C0E45400000008001773A4000000000C60814C000000040EEB744400000008001773A400C000000130000004A0B00003C000000060000000200000000000000C60814C0000000
310
40EEB744400000008001773A4000000000092314C000000040EEB74440000000A02E533A400C00000013000000520B00003C000000060000000200000000000000092314C0000000403C0E4540000000802E533A4000000000092314C000000040EEB74440000000A02E533A400C000000130000005A0B00003C0000000600
310
00000200000000000000C60814C0000000403C0E45400000008001773A4000000000092314C0000000403C0E4540000000802E533A400C00000013000000620B00003C000000060000000200000000000000092314C000000040EEB74440000000A02E533A4000000000D42B14C000000040EEB74440000000E0D32E3A400C
310
000000130000006A0B00003C000000060000000200000000000000D42B14C0000000403C0E4540000000E0D32E3A4000000000D42B14C000000040EEB74440000000E0D32E3A400C00000013000000720B00003C000000060000000200000000000000D42B14C000000040EEB74440000000E0D32E3A4000000000082314C0
310
00000040EEB7444000000020790A3A400C000000130000007A0B00003C000000060000000200000000000000082314C0000000403C0E454000000020790A3A4000000000082314C000000040EEB7444000000020790A3A400C00000013000000820B00003C000000060000000200000000000000D42B14C0000000403C0E45
310
40000000E0D32E3A4000000000082314C0000000403C0E454000000020790A3A400C000000130000008A0B00003C000000060000000200000000000000082314C000000040EEB7444000000020790A3A4000000000C60814C000000040EEB7444000000020A6E639400C00000013000000920B00003C000000060000000200
310
000000000000C60814C0000000403C0E454000000020A6E6394000000000C60814C000000040EEB7444000000020A6E639400C000000130000009A0B00003C000000060000000200000000000000C60814C000000040EEB7444000000020A6E63940000000006EDD13C000000040EEB74440000000A0E0C339400C00000013
310
000000A20B00003C0000000600000002000000000000006EDD13C0000000403C0E4540000000A0E0C33940000000006EDD13C000000040EEB74440000000A0E0C339400C00000013000000AA0B00003C000000060000000200000000000000C60814C0000000403C0E454000000020A6E63940000000006EDD13C000000040
310
3C0E4540000000A0E0C339400C00000013000000B20B00003C0000000600000002000000000000006EDD13C000000040EEB74440000000A0E0C3394000000000A4A113C000000040EEB7444000000060AAA239400C00000013000000BA0B00003C000000060000000200000000000000A4A113C0000000403C0E4540000000
310
60AAA2394000000000A4A113C000000040EEB7444000000060AAA239400C00000013000000C20B00003C000000060000000200000000000000A4A113C000000040EEB7444000000060AAA2394000000000465613C000000040EEB74440000000407F8339400C00000013000000CA0B00003C00000006000000020000000000
310
0000465613C0000000403C0E4540000000407F83394000000000465613C000000040EEB74440000000407F8339400C00000013000000D20B00003C000000060000000200000000000000A4A113C0000000403C0E454000000060AAA2394000000000465613C0000000403C0E4540000000407F8339400C00000013000000DA
310
0B00003C000000060000000200000000000000465613C000000040EEB74440000000407F833940000000006EFC12C000000040EEB74440000000C0D36639400C00000013000000E20B00003C0000000600000002000000000000006EFC12C0000000403C0E4540000000C0D3663940000000006EFC12C000000040EEB74440
310
000000C0D36639400C00000013000000EA0B00003C0000000600000002000000000000006EFC12C000000040EEB74440000000C0D3663940000000006A9512C000000040EEB74440000000E0124D39400C00000013000000F20B00003C0000000600000002000000000000006A9512C0000000403C0E4540000000E0124D39
310
40000000006A9512C000000040EEB74440000000E0124D39400C00000013000000FA0B00003C0000000600000002000000000000006EFC12C0000000403C0E4540000000C0D3663940000000006A9512C0000000403C0E4540000000E0124D39400C00000013000000020C00003C0000000600000002000000000000006A95
310
12C000000040EEB74440000000E0124D394000000000BC2212C000000040EEB74440000000E09C3639400C000000130000000A0C00003C000000060000000200000000000000BC2212C0000000403C0E4540000000E09C36394000000000BC2212C000000040EEB74440000000E09C3639400C00000013000000120C00003C
310
000000060000000200000000000000BC2212C000000040EEB74440000000E09C3639400000000010A611C000000040EEB7444000000040C52339400C000000130000001A0C00003C00000006000000020000000000000010A611C0000000403C0E454000000060C52339400000000010A611C000000040EEB7444000000040
310
C52339400C00000013000000220C00003C000000060000000200000000000000BC2212C0000000403C0E4540000000E09C3639400000000010A611C0000000403C0E454000000060C52339400C000000130000002A0C00003C00000006000000020000000000000010A611C000000040EEB7444000000040C5233940000000
310
00362111C000000040EEB74440000000C0D21439400C00000013000000320C00003C000000060000000200000000000000372111C0000000403C0E4540000000C0D214394000000000362111C000000040EEB74440000000C0D21439400C000000130000003A0C00003C000000060000000200000000000000362111C00000
310
0040EEB74440000000C0D214394000000000209610C000000040EEB74440000000E0FC0939400C00000013000000420C00003C000000060000000200000000000000209610C0000000403C0E4540000000E0FC09394000000000209610C000000040EEB74440000000E0FC0939400C000000130000004A0C00003C00000006
310
0000000200000000000000372111C0000000403C0E4540000000C0D214394000000000209610C0000000403C0E4540000000E0FC0939400C00000013000000520C00003C000000060000000200000000000000209610C000000040EEB74440000000E0FC09394000000000D40610C000000040EEB74440000000406C033940
310
0C000000130000005A0C00003C000000060000000200000000000000D40610C0000000403C0E4540000000406C03394000000000D40610C000000040EEB74440000000406C0339400C00000013000000620C00003C000000060000000200000000000000D40610C000000040EEB74440000000406C03394000000000D4EA0E
310
C000000040EEB7444000000060390139400C000000130000006A0C00003C000000060000000200000000000000D4EA0EC0000000403C0E4540000000603901394000000000D4EA0EC000000040EEB7444000000060390139400C00000013000000720C00003C000000060000000200000000000000D40610C0000000403C0E
310
4540000000406C03394000000000D4EA0EC0000000403C0E454000000060390139400C000000130000007A0C00003C000000060000000200000000000000D4EA0EC000000040EEB74440000000603901394000000000FCC70DC000000040EEB74440000000606C0339400C00000013000000820C00003C0000000600000002
310
00000000000000FEC70DC0000000403C0E4540000000606C03394000000000FCC70DC000000040EEB74440000000606C0339400C000000130000008A0C00003C000000060000000200000000000000FCC70DC000000040EEB74440000000606C0339400000000064A90CC000000040EEB7444000000000FD0939400C000000
310
13000000920C00003C00000006000000020000000000000066A90CC0000000403C0E454000000000FD0939400000000064A90CC000000040EEB7444000000000FD0939400C000000130000009A0C00003C000000060000000200000000000000FEC70DC0000000403C0E4540000000606C0339400000000066A90CC0000000
310
403C0E454000000000FD0939400C00000013000000A20C00003C00000006000000020000000000000064A90CC000000040EEB7444000000000FD093940000000003A930BC000000040EEB74440000000E0D21439400C00000013000000AA0C00003C0000000600000002000000000000003A930BC0000000403C0E45400000
310
00E0D2143940000000003A930BC000000040EEB74440000000E0D21439400C00000013000000B20C00003C0000000600000002000000000000003A930BC000000040EEB74440000000E0D21439400000000086890AC000000040EEB7444000000060C52339400C00000013000000BA0C00003C000000060000000200000000
310
00000086890AC0000000403C0E454000000060C52339400000000086890AC000000040EEB7444000000060C52339400C00000013000000C20C00003C0000000600000002000000000000003A930BC0000000403C0E4540000000E0D21439400000000086890AC0000000403C0E454000000060C52339400C00000013000000
310
CA0C00003C00000006000000020000000000000086890AC000000040EEB7444000000060C5233940000000002E9009C000000040EEB74440000000009D3639400C00000013000000D20C00003C0000000600000002000000000000002E9009C0000000403C0E4540000000009D363940000000002E9009C000000040EEB744
310
40000000009D3639400C00000013000000DA0C00003C0000000600000002000000000000002E9009C000000040EEB74440000000009D36394000000000D2AA08C000000040EEB7444000000020134D39400C00000013000000E20C00003C000000060000000200000000000000D2AA08C0000000403C0E454000000020134D
310
394000000000D2AA08C000000040EEB7444000000020134D39400C00000013000000EA0C00003C0000000600000002000000000000002E9009C0000000403C0E4540000000009D36394000000000D2AA08C0000000403C0E454000000020134D39400C00000013000000F20C00003C000000060000000200000000000000D2
310
AA08C000000040EEB7444000000020134D394000000000CCDC07C000000040EEB7444000000000D46639400C00000013000000FA0C00003C000000060000000200000000000000CCDC07C0000000403C0E454000000000D466394000000000CCDC07C000000040EEB7444000000000D46639400C00000013000000020D0000
310
3C000000060000000200000000000000CCDC07C000000040EEB7444000000000D4663940000000001C2907C000000040EEB74440000000607F8339400C000000130000000A0D00003C0000000600000002000000000000001A2907C0000000403C0E4540000000607F833940000000001C2907C000000040EEB74440000000
310
607F8339400C00000013000000120D00003C000000060000000200000000000000CCDC07C0000000403C0E454000000000D4663940000000001A2907C0000000403C0E4540000000607F8339400C000000130000001A0D00003C0000000600000002000000000000001C2907C000000040EEB74440000000607F8339400000
310
0000609206C000000040EEB7444000000080AAA239400C00000013000000220D00003C000000060000000200000000000000609206C0000000403C0E454000000080AAA2394000000000609206C000000040EEB7444000000080AAA239400C000000130000002A0D00003C000000060000000200000000000000609206C000
310
000040EEB7444000000080AAA2394000000000CA1A06C000000040EEB74440000000C0E0C339400C00000013000000320D00003C000000060000000200000000000000CA1A06C0000000403C0E4540000000E0E0C3394000000000CA1A06C000000040EEB74440000000C0E0C339400C000000130000003A0D00003C000000
310
060000000200000000000000609206C0000000403C0E454000000080AAA2394000000000CA1A06C0000000403C0E4540000000E0E0C339400C00000013000000420D00003C000000060000000200000000000000CA1A06C000000040EEB74440000000C0E0C33940000000001CC405C000000040EEB7444000000060A6E639
310
400C000000130000004A0D00003C0000000600000002000000000000001CC405C0000000403C0E454000000060A6E63940000000001CC405C000000040EEB7444000000060A6E639400C00000013000000520D00003C0000000600000002000000000000001CC405C000000040EEB7444000000060A6E6394000000000988F
310
05C000000040EEB7444000000060790A3A400C000000130000005A0D00003C0000000600000002000000000000001CC405C0000000403C0E454000000060A6E6394000000000988F05C0000000403C0E454000000060790A3A40
100
AcDbSubDMesh
 71
     2
 72
     0
 91
        0
 92
      280
 10
35.52734756469727
 20
42.14094924926757
 30
4.763700485229492
 10
35.5273551940918
 20
42.14094543457031
 30
45.74665832519531
 10
-27.37903594970703
 20
42.14095687866211
 30
4.763710021972656
 10
-26.3790283203125
 20
41.43695831298828
 30
45.7466697692871
 10
20.5574951171875
 20
42.14094924926757
 30
4.763702392578125
 10
20.55749320983887
 20
41.43695831298828
 30
4.763702392578125
 10
20.55749893188477
 20
41.43695449829102
 30
45.74666213989257
 10
20.5575008392334
 20
42.14094543457031
 30
45.74666213989257
 10
34.52734756469727
 20
41.43695831298828
 30
4.763700485229492
 10
34.5273551940918
 20
41.43695449829102
 30
45.74665832519531
 10
-26.37903594970703
 20
41.43696212768555
 30
4.763710021972656
 10
-27.3790283203125
 20
42.14095306396484
 30
45.7466697692871
 10
35.52040481567383
 20
42.02850723266601
 30
4.763700485229492
 10
35.49956893920898
 20
41.92584228515625
 30
4.763700485229492
 10
35.46484756469727
 20
41.83295440673828
 30
4.763700485229492
 10
35.41623687744141
 20
41.74984359741211
 30
4.763700485229492
 10
35.35373687744141
 20
41.67650985717773
 30
4.763700485229492
 10
35.27734756469727
 20
41.61295700073242
 30
4.763700485229492
 10
35.18706893920898
 20
41.55917739868164
 30
4.763700485229492
 10
35.08290481567383
 20
41.51517868041992
 30
4.763700485229492
 10
34.96484756469727
 20
41.48095703125
 30
4.763700485229492
 10
34.83290481567383
 20
41.45651245117187
 30
4.763700485229492
 10
34.68706893920899
 20
41.44184494018555
 30
4.763700485229492
 10
34.68707656860352
 20
41.44184112548828
 30
45.74665832519531
 10
34.83290863037109
 20
41.4565086364746
 30
45.74665832519531
 10
34.9648551940918
 20
41.48095321655273
 30
45.74665832519531
 10
35.08290863037109
 20
41.51517486572266
 30
45.74665832519531
 10
35.18707656860352
 20
41.55917358398437
 30
45.74665832519531
 10
35.2773551940918
 20
41.61295318603515
 30
45.74665832519531
 10
35.35374450683594
 20
41.67650604248047
 30
45.74665832519531
 10
35.41624450683594
 20
41.74983978271484
 30
45.74665832519531
 10
35.4648551940918
 20
41.83295059204101
 30
45.74665832519531
 10
35.49957656860352
 20
41.92583847045898
 30
45.74665832519531
 10
35.5204086303711
 20
42.02850341796875
 30
45.74665832519531
 10
-26.53875732421875
 20
41.44184875488281
 30
4.763710021972656
 10
-26.6845932006836
 20
41.45651626586913
 30
4.763710021972656
 10
-26.81653594970703
 20
41.48096084594726
 30
4.763710021972656
 10
-26.9345932006836
 20
41.51518249511719
 30
4.763710021972656
 10
-27.03875732421875
 20
41.5591812133789
 30
4.763710021972656
 10
-27.12903594970703
 20
41.61296081542968
 30
4.763710021972656
 10
-27.20542526245117
 20
41.676513671875
 30
4.763710021972656
 10
-27.26792526245117
 20
41.74984741210937
 30
4.763710021972656
 10
-27.31653594970703
 20
41.83295822143555
 30
4.763710021972656
 10
-27.35125732421875
 20
41.92584609985352
 30
4.763710021972656
 10
-27.37209320068359
 20
42.02851104736327
 30
4.763710021972656
 10
-27.37208557128906
 20
42.02850723266601
 30
45.7466697692871
 10
-27.35124969482422
 20
41.92584228515625
 30
45.7466697692871
 10
-27.3165283203125
 20
41.83295440673828
 30
45.7466697692871
 10
-27.26791763305664
 20
41.74984359741211
 30
45.7466697692871
 10
-27.20541763305664
 20
41.67650985717773
 30
45.7466697692871
 10
-27.1290283203125
 20
41.61295700073242
 30
45.7466697692871
 10
-27.03874969482422
 20
41.55917739868164
 30
45.7466697692871
 10
-26.93458557128906
 20
41.51517868041992
 30
45.7466697692871
 10
-26.8165283203125
 20
41.48095703125
 30
45.7466697692871
 10
-26.68458557128906
 20
41.45651245117187
 30
45.7466697692871
 10
-26.53874969482422
 20
41.44184494018555
 30
45.7466697692871
 10
20.57471466064453
 20
41.42355728149413
 30
17.99431800842285
 10
34.44470977783203
 20
41.42355346679687
 30
17.99431610107422
 10
20.57471466064453
 20
41.42355728149413
 30
18.97426414489746
 10
34.44470977783203
 20
41.42355346679687
 30
18.97426223754883
 10
20.5747127532959
 20
35.57001113891602
 30
17.99431800842285
 10
34.44470596313477
 20
35.57000732421875
 30
17.99431610107422
 10
20.5747127532959
 20
35.57001113891602
 30
18.97426414489746
 10
34.44470596313477
 20
35.57000732421875
 30
18.97426223754883
 10
20.57471466064453
 20
41.42355728149413
 30
31.86288833618164
 10
34.44470977783203
 20
41.42355346679687
 30
31.86288642883301
 10
20.57471466064453
 20
41.42355728149413
 30
32.84283447265625
 10
34.44470977783203
 20
41.42355346679687
 30
32.84283447265625
 10
20.57471466064453
 20
35.57000732421875
 30
31.86288833618164
 10
34.44470977783203
 20
35.57000732421875
 30
31.86288642883301
 10
20.57471466064453
 20
35.57000732421875
 30
32.84283447265625
 10
34.44470977783203
 20
35.57000732421875
 30
32.84283065795899
 10
-2.6865234375
 20
42.14094924926757
 30
26.18292045593262
 10
-2.695114135742187
 20
42.14094924926757
 30
26.32493019104004
 10
-2.720756530761718
 20
42.14094924926757
 30
26.46486854553223
 10
-2.763084411621093
 20
42.14094924926757
 30
26.6006965637207
 10
-2.82147216796875
 20
42.14094924926757
 30
26.73043060302735
 10
-2.895072937011718
 20
42.14094924926757
 30
26.85218238830567
 10
-2.982810974121093
 20
42.14094924926757
 30
26.96417236328125
 10
-3.083412170410156
 20
42.14094924926757
 30
27.06477165222168
 10
-3.33087158203125
 20
42.14094924926757
 30
27.23440361022949
 10
-3.456958770751953
 20
42.14094924926757
 30
27.28903388977051
 10
-3.590202331542968
 20
42.14094924926757
 30
27.32915878295898
 10
-3.727222442626953
 20
42.14094924926757
 30
27.35330772399902
 10
-3.8658447265625
 20
42.14095306396484
 30
27.36113357543946
 10
-4.004066467285156
 20
42.14095306396484
 30
27.35262870788574
 10
-4.146614074707031
 20
42.14095306396484
 30
27.32682609558106
 10
-4.282440185546875
 20
42.14095306396484
 30
27.28450012207031
 10
-4.412174224853515
 20
42.14095306396484
 30
27.22611045837402
 10
-4.533927917480468
 20
42.14095306396484
 30
27.15250968933105
 10
-4.645912170410156
 20
42.14095306396484
 30
27.06477165222168
 10
-4.746513366699218
 20
42.14095306396484
 30
26.96417236328125
 10
-4.824127197265625
 20
42.14095306396484
 30
26.86510276794434
 10
-4.899795532226562
 20
42.14095306396484
 30
26.74375343322754
 10
-4.959403991699218
 20
42.14095306396484
 30
26.61588859558106
 10
-5.003021240234375
 20
42.14095306396484
 30
26.48267555236817
 10
-5.034210205078125
 20
42.14095306396484
 30
26.32492828369141
 10
-5.042800903320312
 20
42.14095306396484
 30
26.18292045593262
 10
-5.034210205078125
 20
42.14095306396484
 30
26.0409107208252
 10
-5.008567810058593
 20
42.14095306396484
 30
25.90097427368164
 10
-4.966239929199218
 20
42.14095306396484
 30
25.76514625549317
 10
-4.907852172851562
 20
42.14095306396484
 30
25.63541221618653
 10
-4.834251403808593
 20
42.14095306396484
 30
25.51366233825684
 10
-4.746513366699218
 20
42.14095306396484
 30
25.40167045593262
 10
-4.645912170410156
 20
42.14095306396484
 30
25.30107116699219
 10
-4.533920288085937
 20
42.14095306396484
 30
25.21333122253418
 10
-4.412174224853515
 20
42.14095306396484
 30
25.13973045349121
 10
-4.282440185546875
 20
42.14095306396484
 30
25.08134269714356
 10
-4.1466064453125
 20
42.14095306396484
 30
25.03901481628418
 10
-4.01828384399414
 20
42.14095306396484
 30
25.01549911499024
 10
-3.864662170410156
 20
42.14095306396484
 30
25.00478172302246
 10
-3.72265625
 20
42.14095306396484
 30
25.01337051391602
 10
-3.582717895507812
 20
42.14095306396484
 30
25.03901672363281
 10
-3.446891784667968
 20
42.14095306396484
 30
25.08134269714356
 10
-3.317150115966796
 20
42.14095306396484
 30
25.13973045349121
 10
-3.195400238037109
 20
42.14095306396484
 30
25.21333122253418
 10
-3.083412170410156
 20
42.14095306396484
 30
25.30107116699219
 10
-2.982810974121093
 20
42.14095306396484
 30
25.40167236328125
 10
-2.895069122314453
 20
42.14095306396484
 30
25.5136604309082
 10
-2.82147216796875
 20
42.14095306396484
 30
25.63541412353516
 10
-2.763084411621093
 20
42.14095306396484
 30
25.76515007019043
 10
-2.720756530761718
 20
42.14095306396484
 30
25.90097427368164
 10
-2.695110321044921
 20
42.14095306396484
 30
26.04091453552246
 10
-2.695117950439453
 20
41.43695831298828
 30
26.32493019104004
 10
-2.686527252197265
 20
41.43695831298828
 30
26.18292045593262
 10
-2.720756530761718
 20
41.43695831298828
 30
26.46486854553223
 10
-2.763080596923828
 20
41.43695831298828
 30
26.6006965637207
 10
-2.821475982666015
 20
41.43695831298828
 30
26.73042869567871
 10
-2.895069122314453
 20
41.43695831298828
 30
26.8521842956543
 10
-2.982810974121093
 20
41.43695831298828
 30
26.96417427062988
 10
-3.083412170410156
 20
41.43695831298828
 30
27.06477165222168
 10
-3.190155029296875
 20
41.43695831298828
 30
27.14933776855469
 10
-3.28451919555664
 20
41.43695831298828
 30
27.20638465881348
 10
-3.413993835449218
 20
41.43695831298828
 30
27.26969528198242
 10
-3.546211242675781
 20
41.43695831298828
 30
27.31545066833496
 10
-3.680938720703125
 20
41.43695831298828
 30
27.34482765197754
 10
-3.81680679321289
 20
41.43695831298828
 30
27.3581657409668
 10
-4.1466064453125
 20
41.43695831298828
 30
27.32682609558106
 10
-4.28244400024414
 20
41.43695831298828
 30
27.28449821472168
 10
-4.412174224853515
 20
41.43695831298828
 30
27.22610855102539
 10
-4.533927917480468
 20
41.43695831298828
 30
27.15251159667969
 10
-4.645915985107421
 20
41.43695831298828
 30
27.06477165222168
 10
-4.863929748535156
 20
41.43695831298828
 30
26.81429672241211
 10
-4.925552368164062
 20
41.43695831298828
 30
26.70114898681641
 10
-4.977165222167968
 20
41.43695831298828
 30
26.57644271850586
 10
-5.014408111572265
 20
41.43695831298828
 30
26.44611549377442
 10
-5.03421401977539
 20
41.43695831298828
 30
26.32492828369141
 10
-5.042804718017578
 20
41.43695831298828
 30
26.18292045593262
 10
-5.03421401977539
 20
41.43695831298828
 30
26.0409107208252
 10
-5.008567810058593
 20
41.43695831298828
 30
25.90097427368164
 10
-4.966236114501953
 20
41.43695831298828
 30
25.76514625549317
 10
-4.907852172851562
 20
41.43695831298828
 30
25.63541412353516
 10
-4.834255218505859
 20
41.43695831298828
 30
25.51365852355957
 10
-4.746513366699218
 20
41.43695831298828
 30
25.40167045593262
 10
-4.645912170410156
 20
41.43695831298828
 30
25.30106925964356
 10
-4.533920288085937
 20
41.43695831298828
 30
25.21332931518555
 10
-4.41217041015625
 20
41.43695831298828
 30
25.13973045349121
 10
-4.282432556152343
 20
41.43695831298828
 30
25.08133888244629
 10
-4.146610260009765
 20
41.43695831298828
 30
25.03901481628418
 10
-3.984664916992187
 20
41.43695831298828
 30
25.00934028625489
 10
-3.864665985107421
 20
41.43695831298828
 30
25.00478172302246
 10
-3.72265625
 20
41.43695831298828
 30
25.01337051391602
 10
-3.582717895507812
 20
41.43695831298828
 30
25.03901672363281
 10
-3.446891784667968
 20
41.43695831298828
 30
25.08134269714356
 10
-3.317153930664062
 20
41.43695831298828
 30
25.13973045349121
 10
-3.195404052734375
 20
41.43695831298828
 30
25.21333122253418
 10
-3.083412170410156
 20
41.43695831298828
 30
25.30106925964356
 10
-2.982810974121093
 20
41.43695831298828
 30
25.40167045593262
 10
-2.895072937011718
 20
41.43695831298828
 30
25.51365852355957
 10
-2.82147216796875
 20
41.43695831298828
 30
25.63541221618653
 10
-2.763084411621093
 20
41.43695831298828
 30
25.76515197753906
 10
-2.720756530761718
 20
41.43695831298828
 30
25.90097427368164
 10
-2.695117950439453
 20
41.43695831298828
 30
26.04091453552246
 10
-2.6865234375
 20
42.11121368408202
 30
26.18292045593262
 10
-2.695114135742187
 20
42.11121368408202
 30
26.32493019104004
 10
-2.720756530761718
 20
42.11121368408202
 30
26.46486854553223
 10
-2.763084411621093
 20
42.11121368408202
 30
26.60069465637207
 10
-2.82147216796875
 20
42.11121368408202
 30
26.73043060302735
 10
-2.895072937011718
 20
42.11121368408202
 30
26.85218048095703
 10
-2.982810974121093
 20
42.11121368408202
 30
26.96417236328125
 10
-3.083412170410156
 20
42.11121368408202
 30
27.06477165222168
 10
-3.195404052734375
 20
42.11121368408202
 30
27.15251159667969
 10
-3.317153930664062
 20
42.11121368408202
 30
27.22611236572266
 10
-3.446887969970703
 20
42.11121368408202
 30
27.28450012207031
 10
-3.582714080810546
 20
42.11121368408202
 30
27.32682609558106
 10
-3.722652435302734
 20
42.11121368408202
 30
27.35247039794922
 10
-3.864662170410156
 20
42.11121368408202
 30
27.36106109619141
 10
-4.006671905517578
 20
42.11121368408202
 30
27.35247039794922
 10
-4.146610260009765
 20
42.11121368408202
 30
27.32682609558106
 10
-4.282436370849609
 20
42.11121368408202
 30
27.28450012207031
 10
-4.41217041015625
 20
42.11121368408202
 30
27.22611236572266
 10
-4.533924102783203
 20
42.11121368408202
 30
27.15251159667969
 10
-4.645912170410156
 20
42.11121368408202
 30
27.06477165222168
 10
-4.746513366699218
 20
42.11121368408202
 30
26.96417236328125
 10
-4.834251403808593
 20
42.11121368408202
 30
26.85218048095703
 10
-4.907852172851562
 20
42.11121368408202
 30
26.73042869567871
 10
-4.966243743896484
 20
42.11121368408202
 30
26.60069465637207
 10
-5.008567810058593
 20
42.11121368408202
 30
26.4648666381836
 10
-5.03421401977539
 20
42.11121368408202
 30
26.32492828369141
 10
-5.042800903320312
 20
42.11121368408202
 30
26.18292045593262
 10
-5.034210205078125
 20
42.11121368408202
 30
26.0409107208252
 10
-5.008567810058593
 20
42.11121368408202
 30
25.90097236633301
 10
-4.966239929199218
 20
42.11121368408202
 30
25.76514625549317
 10
-4.907852172851562
 20
42.11121368408202
 30
25.63541221618653
 10
-4.834251403808593
 20
42.11121368408202
 30
25.5136604309082
 10
-4.746513366699218
 20
42.11121368408202
 30
25.40166854858398
 10
-4.645912170410156
 20
42.11121368408202
 30
25.30106925964356
 10
-4.533920288085937
 20
42.11121368408202
 30
25.21333122253418
 10
-4.41217041015625
 20
42.11121368408202
 30
25.13973045349121
 10
-4.282436370849609
 20
42.11121368408202
 30
25.08134078979492
 10
-4.1466064453125
 20
42.11121368408202
 30
25.03901481628418
 10
-4.006668090820312
 20
42.11121368408202
 30
25.01337051391602
 10
-3.864662170410156
 20
42.11121368408202
 30
25.00478172302246
 10
-3.722652435302734
 20
42.11121368408202
 30
25.01337242126465
 10
-3.582714080810546
 20
42.11121368408202
 30
25.03901672363281
 10
-3.446887969970703
 20
42.11121368408202
 30
25.08134269714356
 10
-3.317150115966796
 20
42.11121368408202
 30
25.13973045349121
 10
-3.195400238037109
 20
42.11121368408202
 30
25.21333312988281
 10
-3.08340835571289
 20
42.11121368408202
 30
25.30107307434082
 10
-2.982810974121093
 20
42.11121368408202
 30
25.40167236328125
 10
-2.895069122314453
 20
42.11121368408202
 30
25.51366233825684
 10
-2.82147216796875
 20
42.11121368408202
 30
25.63541412353516
 10
-2.763080596923828
 20
42.11121368408202
 30
25.76515007019043
 10
-2.720756530761718
 20
42.11121368408202
 30
25.90097618103027
 10
-2.695114135742187
 20
42.11121368408202
 30
26.04091453552246
 10
-2.6865234375
 20
41.43695831298828
 30
26.18292045593262
 10
-2.695114135742187
 20
41.43695831298828
 30
26.32493019104004
 10
-2.720756530761718
 20
41.43695831298828
 30
26.46486854553223
 10
-2.763084411621093
 20
41.43695831298828
 30
26.60069465637207
 10
-2.82147216796875
 20
41.43695831298828
 30
26.73043060302735
 10
-2.895072937011718
 20
41.43695831298828
 30
26.85218048095703
 10
-2.982810974121093
 20
41.43695831298828
 30
26.96417236328125
 10
-3.083412170410156
 20
41.43695831298828
 30
27.06477165222168
 10
-3.195404052734375
 20
41.43695831298828
 30
27.15251159667969
 10
-3.317153930664062
 20
41.43695831298828
 30
27.22611236572266
 10
-3.446887969970703
 20
41.43695831298828
 30
27.28450012207031
 10
-3.582710266113281
 20
41.43695831298828
 30
27.32682609558106
 10
-3.722648620605468
 20
41.43695831298828
 30
27.35247039794922
 10
-3.864662170410156
 20
41.43695831298828
 30
27.36106109619141
 10
-4.006668090820312
 20
41.43695831298828
 30
27.35247039794922
 10
-4.146610260009765
 20
41.43695831298828
 30
27.32682609558106
 10
-4.282432556152343
 20
41.43695831298828
 30
27.28450012207031
 10
-4.41217041015625
 20
41.43695831298828
 30
27.22611236572266
 10
-4.533924102783203
 20
41.43695831298828
 30
27.15251159667969
 10
-4.645912170410156
 20
41.43695831298828
 30
27.06477165222168
 10
-4.746513366699218
 20
41.43695831298828
 30
26.96417236328125
 10
-4.834251403808593
 20
41.43695831298828
 30
26.85218048095703
 10
-4.907852172851562
 20
41.43695831298828
 30
26.73042869567871
 10
-4.966243743896484
 20
41.43695831298828
 30
26.60069465637207
 10
-5.008567810058593
 20
41.43695831298828
 30
26.4648666381836
 10
-5.03421401977539
 20
41.43695831298828
 30
26.32493019104004
 10
-5.042800903320312
 20
41.43695831298828
 30
26.18292045593262
 10
-5.034210205078125
 20
41.43695831298828
 30
26.0409107208252
 10
-5.008567810058593
 20
41.43695831298828
 30
25.90097236633301
 10
-4.966239929199218
 20
41.43695831298828
 30
25.76514625549317
 10
-4.907852172851562
 20
41.43695831298828
 30
25.63541221618653
 10
-4.834251403808593
 20
41.43695831298828
 30
25.5136604309082
 10
-4.746513366699218
 20
41.43695831298828
 30
25.40166854858398
 10
-4.645912170410156
 20
41.43695831298828
 30
25.30106925964356
 10
-4.533920288085937
 20
41.43695831298828
 30
25.21333122253418
 10
-4.41217041015625
 20
41.43695831298828
 30
25.13972854614258
 10
-4.282432556152343
 20
41.43695831298828
 30
25.08134078979492
 10
-4.1466064453125
 20
41.43695831298828
 30
25.03901481628418
 10
-4.006668090820312
 20
41.43695831298828
 30
25.01337051391602
 10
-3.864662170410156
 20
41.43695831298828
 30
25.00478172302246
 10
-3.722648620605468
 20
41.43695831298828
 30
25.01337242126465
 10
-3.582710266113281
 20
41.43695831298828
 30
25.03901672363281
 10
-3.446887969970703
 20
41.43695831298828
 30
25.08134269714356
 10
-3.317150115966796
 20
41.43695831298828
 30
25.13973045349121
 10
-3.195400238037109
 20
41.43695831298828
 30
25.21333312988281
 10
-3.08340835571289
 20
41.43695831298828
 30
25.30107307434082
 10
-2.982810974121093
 20
41.43695831298828
 30
25.40167236328125
 10
-2.895072937011718
 20
41.43695831298828
 30
25.51366233825684
 10
-2.82147216796875
 20
41.43695831298828
 30
25.63541412353516
 10
-2.763080596923828
 20
41.43695831298828
 30
25.7651481628418
 10
-2.720756530761718
 20
41.43695831298828
 30
25.90097618103027
 10
-2.695114135742187
 20
41.43695831298828
 30
26.04091453552246
 10
-3.198066711425781
 20
42.14094924926757
 30
27.14860343933106
 10
-4.64306640625
 20
42.14095306396484
 30
27.06155776977539
 10
-2.699378967285156
 20
42.14094924926757
 30
26.04143142700195
 93
      898
 90
       15
 90
        0
 90
       12
 90
       13
 90
       14
 90
       15
 90
       16
 90
       17
 90
       18
 90
       19
 90
       20
 90
       21
 90
       22
 90
        8
 90
        5
 90
        4
 90
       15
 90
        4
 90
        5
 90
       10
 90
       34
 90
       35
 90
       36
 90
       37
 90
       38
 90
       39
 90
       40
 90
       41
 90
       42
 90
       43
 90
       44
 90
        2
 90
        4
 90
        8
 90
        9
 90
        6
 90
        5
 90
       15
 90
        9
 90
       23
 90
       24
 90
       25
 90
       26
 90
       27
 90
       28
 90
       29
 90
       30
 90
       31
 90
       32
 90
       33
 90
        1
 90
        7
 90
        6
 90
       15
 90
        6
 90
        7
 90
       11
 90
       45
 90
       46
 90
       47
 90
       48
 90
       49
 90
       50
 90
       51
 90
       52
 90
       53
 90
       54
 90
       55
 90
        3
 90
        4
 90
        1
 90
        0
 90
        4
 90
        7
 90
        4
 90
        1
 90
       33
 90
       12
 90
        0
 90
        4
 90
        2
 90
       44
 90
       45
 90
       11
 90
        4
 90
       33
 90
       32
 90
       13
 90
       12
 90
        4
 90
       32
 90
       31
 90
       14
 90
       13
 90
        4
 90
       31
 90
       30
 90
       15
 90
       14
 90
        4
 90
       30
 90
       29
 90
       16
 90
       15
 90
        4
 90
       29
 90
       28
 90
       17
 90
       16
 90
        4
 90
       28
 90
       27
 90
       18
 90
       17
 90
        4
 90
       27
 90
       26
 90
       19
 90
       18
 90
        4
 90
       26
 90
       25
 90
       20
 90
       19
 90
        4
 90
       25
 90
       24
 90
       21
 90
       20
 90
        4
 90
       24
 90
       23
 90
       22
 90
       21
 90
        4
 90
       23
 90
        9
 90
        8
 90
       22
 90
        4
 90
       44
 90
       43
 90
       46
 90
       45
 90
        4
 90
       43
 90
       42
 90
       47
 90
       46
 90
        4
 90
       42
 90
       41
 90
       48
 90
       47
 90
        4
 90
       41
 90
       40
 90
       49
 90
       48
 90
        4
 90
       40
 90
       39
 90
       50
 90
       49
 90
        4
 90
       39
 90
       38
 90
       51
 90
       50
 90
        4
 90
       38
 90
       37
 90
       52
 90
       51
 90
        4
 90
       37
 90
       36
 90
       53
 90
       52
 90
        4
 90
       36
 90
       35
 90
       54
 90
       53
 90
        4
 90
       35
 90
       34
 90
       55
 90
       54
 90
        4
 90
       34
 90
       10
 90
        3
 90
       55
 90
        4
 90
       56
 90
       58
 90
       59
 90
       57
 90
        4
 90
       60
 90
       61
 90
       63
 90
       62
 90
        4
 90
       56
 90
       57
 90
       61
 90
       60
 90
        4
 90
       57
 90
       59
 90
       63
 90
       61
 90
        4
 90
       59
 90
       58
 90
       62
 90
       63
 90
        4
 90
       58
 90
       56
 90
       60
 90
       62
 90
        4
 90
       64
 90
       66
 90
       67
 90
       65
 90
        4
 90
       68
 90
       69
 90
       71
 90
       70
 90
        4
 90
       64
 90
       65
 90
       69
 90
       68
 90
        4
 90
       65
 90
       67
 90
       71
 90
       69
 90
        4
 90
       67
 90
       66
 90
       70
 90
       71
 90
        4
 90
       66
 90
       64
 90
       68
 90
       70
 90
       57
 90
       80
 90
       81
 90
       82
 90
       83
 90
       84
 90
       85
 90
       86
 90
       87
 90
       88
 90
       89
 90
       90
 90
       91
 90
       92
 90
       93
 90
       94
 90
       95
 90
       96
 90
       97
 90
       98
 90
       99
 90
      100
 90
      101
 90
      102
 90
      103
 90
      104
 90
      105
 90
      106
 90
      107
 90
      108
 90
      109
 90
      110
 90
      111
 90
      112
 90
      113
 90
      114
 90
      115
 90
      116
 90
      117
 90
      118
 90
      119
 90
      120
 90
      121
 90
      122
 90
        4
 90
        2
 90
       11
 90
        7
 90
      122
 90
       72
 90
       73
 90
       74
 90
       75
 90
       76
 90
       77
 90
       78
 90
       79
 90
      277
 90
        4
 90
       90
 90
       89
 90
      278
 90
       91
 90
        4
 90
      121
 90
      279
 90
       72
 90
      122
 90
       55
 90
      159
 90
      158
 90
      157
 90
      156
 90
      155
 90
      154
 90
      153
 90
      152
 90
      151
 90
      150
 90
      149
 90
      148
 90
      147
 90
      146
 90
      145
 90
      144
 90
      143
 90
      142
 90
      141
 90
      140
 90
      139
 90
      138
 90
      137
 90
      136
 90
      135
 90
      134
 90
      133
 90
      132
 90
      131
 90
      130
 90
      129
 90
      128
 90
      127
 90
      126
 90
      125
 90
      123
 90
      124
 90
      172
 90
        5
 90
        6
 90
        3
 90
       10
 90
      172
 90
      171
 90
      170
 90
      169
 90
      168
 90
      167
 90
      166
 90
      165
 90
      164
 90
      163
 90
      162
 90
      161
 90
      160
 90
        4
 90
      175
 90
       74
 90
       73
 90
      174
 90
        4
 90
      177
 90
       76
 90
       75
 90
      176
 90
        4
 90
      179
 90
       78
 90
       77
 90
      178
 90
        4
 90
      181
 90
      277
 90
       79
 90
      180
 90
        4
 90
      183
 90
       81
 90
       80
 90
      182
 90
        4
 90
      185
 90
       83
 90
       82
 90
      184
 90
        4
 90
      187
 90
       85
 90
       84
 90
      186
 90
        4
 90
      189
 90
       87
 90
       86
 90
      188
 90
        4
 90
      191
 90
       89
 90
       88
 90
      190
 90
        4
 90
      193
 90
       91
 90
      278
 90
      192
 90
        4
 90
      195
 90
       93
 90
       92
 90
      194
 90
        4
 90
      197
 90
       95
 90
       94
 90
      196
 90
        4
 90
      199
 90
       97
 90
       96
 90
      198
 90
        4
 90
      201
 90
       99
 90
       98
 90
      200
 90
        4
 90
      203
 90
      101
 90
      100
 90
      202
 90
        4
 90
      205
 90
      103
 90
      102
 90
      204
 90
        4
 90
      207
 90
      105
 90
      104
 90
      206
 90
        4
 90
      209
 90
      107
 90
      106
 90
      208
 90
        4
 90
      211
 90
      109
 90
      108
 90
      210
 90
        4
 90
      213
 90
      111
 90
      110
 90
      212
 90
        4
 90
      215
 90
      113
 90
      112
 90
      214
 90
        4
 90
      217
 90
      115
 90
      114
 90
      216
 90
        4
 90
      219
 90
      117
 90
      116
 90
      218
 90
        4
 90
      221
 90
      119
 90
      118
 90
      220
 90
        4
 90
      223
 90
      121
 90
      120
 90
      222
 90
        4
 90
       72
 90
      279
 90
      224
 90
      173
 90
        4
 90
      224
 90
      276
 90
      225
 90
      173
 90
        4
 90
      225
 90
      226
 90
      174
 90
      173
 90
        4
 90
      226
 90
      227
 90
      175
 90
      174
 90
        4
 90
      227
 90
      228
 90
      176
 90
      175
 90
        4
 90
      228
 90
      229
 90
      177
 90
      176
 90
        4
 90
      229
 90
      230
 90
      178
 90
      177
 90
        4
 90
      230
 90
      231
 90
      179
 90
      178
 90
        4
 90
      231
 90
      232
 90
      180
 90
      179
 90
        4
 90
      232
 90
      233
 90
      181
 90
      180
 90
        4
 90
      233
 90
      234
 90
      182
 90
      181
 90
        4
 90
      234
 90
      235
 90
      183
 90
      182
 90
        4
 90
      235
 90
      236
 90
      184
 90
      183
 90
        4
 90
      236
 90
      237
 90
      185
 90
      184
 90
        4
 90
      237
 90
      238
 90
      186
 90
      185
 90
        4
 90
      238
 90
      239
 90
      187
 90
      186
 90
        4
 90
      239
 90
      240
 90
      188
 90
      187
 90
        4
 90
      240
 90
      241
 90
      189
 90
      188
 90
        4
 90
      241
 90
      242
 90
      190
 90
      189
 90
        4
 90
      242
 90
      243
 90
      191
 90
      190
 90
        4
 90
      243
 90
      244
 90
      192
 90
      191
 90
        4
 90
      244
 90
      245
 90
      193
 90
      192
 90
        4
 90
      245
 90
      246
 90
      194
 90
      193
 90
        4
 90
      246
 90
      247
 90
      195
 90
      194
 90
        4
 90
      247
 90
      248
 90
      196
 90
      195
 90
        4
 90
      248
 90
      249
 90
      197
 90
      196
 90
        4
 90
      249
 90
      250
 90
      198
 90
      197
 90
        4
 90
      250
 90
      251
 90
      199
 90
      198
 90
        4
 90
      251
 90
      252
 90
      200
 90
      199
 90
        4
 90
      252
 90
      253
 90
      201
 90
      200
 90
        4
 90
      253
 90
      254
 90
      202
 90
      201
 90
        4
 90
      254
 90
      255
 90
      203
 90
      202
 90
        4
 90
      255
 90
      256
 90
      204
 90
      203
 90
        4
 90
      256
 90
      257
 90
      205
 90
      204
 90
        4
 90
      257
 90
      258
 90
      206
 90
      205
 90
        4
 90
      258
 90
      259
 90
      207
 90
      206
 90
        4
 90
      259
 90
      260
 90
      208
 90
      207
 90
        4
 90
      260
 90
      261
 90
      209
 90
      208
 90
        4
 90
      261
 90
      262
 90
      210
 90
      209
 90
        4
 90
      262
 90
      263
 90
      211
 90
      210
 90
        4
 90
      263
 90
      264
 90
      212
 90
      211
 90
        4
 90
      264
 90
      265
 90
      213
 90
      212
 90
        4
 90
      265
 90
      266
 90
      214
 90
      213
 90
        4
 90
      266
 90
      267
 90
      215
 90
      214
 90
        4
 90
      267
 90
      268
 90
      216
 90
      215
 90
        4
 90
      268
 90
      269
 90
      217
 90
      216
 90
        4
 90
      269
 90
      270
 90
      218
 90
      217
 90
        4
 90
      270
 90
      271
 90
      219
 90
      218
 90
        4
 90
      271
 90
      272
 90
      220
 90
      219
 90
        4
 90
      272
 90
      273
 90
      221
 90
      220
 90
        4
 90
      273
 90
      274
 90
      222
 90
      221
 90
        4
 90
      274
 90
      275
 90
      223
 90
      222
 90
        4
 90
      275
 90
      276
 90
      224
 90
      223
 90
        4
 90
       73
 90
       72
 90
      173
 90
      174
 90
        4
 90
       75
 90
       74
 90
      175
 90
      176
 90
        4
 90
       77
 90
       76
 90
      177
 90
      178
 90
        4
 90
       79
 90
       78
 90
      179
 90
      180
 90
        4
 90
       80
 90
      277
 90
      181
 90
      182
 90
        4
 90
       82
 90
       81
 90
      183
 90
      184
 90
        4
 90
       84
 90
       83
 90
      185
 90
      186
 90
        4
 90
       86
 90
       85
 90
      187
 90
      188
 90
        4
 90
       88
 90
       87
 90
      189
 90
      190
 90
        4
 90
      278
 90
       89
 90
      191
 90
      192
 90
        4
 90
       92
 90
       91
 90
      193
 90
      194
 90
        4
 90
       94
 90
       93
 90
      195
 90
      196
 90
        4
 90
       96
 90
       95
 90
      197
 90
      198
 90
        4
 90
       98
 90
       97
 90
      199
 90
      200
 90
        4
 90
      100
 90
       99
 90
      201
 90
      202
 90
        4
 90
      102
 90
      101
 90
      203
 90
      204
 90
        4
 90
      104
 90
      103
 90
      205
 90
      206
 90
        4
 90
      106
 90
      105
 90
      207
 90
      208
 90
        4
 90
      108
 90
      107
 90
      209
 90
      210
 90
        4
 90
      110
 90
      109
 90
      211
 90
      212
 90
        4
 90
      112
 90
      111
 90
      213
 90
      214
 90
        4
 90
      114
 90
      113
 90
      215
 90
      216
 90
        4
 90
      116
 90
      115
 90
      217
 90
      218
 90
        4
 90
      118
 90
      117
 90
      219
 90
      220
 90
        4
 90
      120
 90
      119
 90
      221
 90
      222
 90
        4
 90
      279
 90
      121
 90
      223
 90
      224
 94
      428
 90
        0
 90
       12
 90
       12
 90
       13
 90
       13
 90
       14
 90
       14
 90
       15
 90
       15
 90
       16
 90
       16
 90
       17
 90
       17
 90
       18
 90
       18
 90
       19
 90
       19
 90
       20
 90
       20
 90
       21
 90
       21
 90
       22
 90
        8
 90
       22
 90
        5
 90
        8
 90
        4
 90
        5
 90
        0
 90
        4
 90
        5
 90
       10
 90
       10
 90
       34
 90
       34
 90
       35
 90
       35
 90
       36
 90
       36
 90
       37
 90
       37
 90
       38
 90
       38
 90
       39
 90
       39
 90
       40
 90
       40
 90
       41
 90
       41
 90
       42
 90
       42
 90
       43
 90
       43
 90
       44
 90
        2
 90
       44
 90
        2
 90
        4
 90
        8
 90
        9
 90
        6
 90
        9
 90
        5
 90
        6
 90
        9
 90
       23
 90
       23
 90
       24
 90
       24
 90
       25
 90
       25
 90
       26
 90
       26
 90
       27
 90
       27
 90
       28
 90
       28
 90
       29
 90
       29
 90
       30
 90
       30
 90
       31
 90
       31
 90
       32
 90
       32
 90
       33
 90
        1
 90
       33
 90
        1
 90
        7
 90
        6
 90
        7
 90
        7
 90
       11
 90
       11
 90
       45
 90
       45
 90
       46
 90
       46
 90
       47
 90
       47
 90
       48
 90
       48
 90
       49
 90
       49
 90
       50
 90
       50
 90
       51
 90
       51
 90
       52
 90
       52
 90
       53
 90
       53
 90
       54
 90
       54
 90
       55
 90
        3
 90
       55
 90
        3
 90
        6
 90
        0
 90
        1
 90
        4
 90
        7
 90
       12
 90
       33
 90
       44
 90
       45
 90
        2
 90
       11
 90
       13
 90
       32
 90
       14
 90
       31
 90
       15
 90
       30
 90
       16
 90
       29
 90
       17
 90
       28
 90
       18
 90
       27
 90
       19
 90
       26
 90
       20
 90
       25
 90
       21
 90
       24
 90
       22
 90
       23
 90
       43
 90
       46
 90
       42
 90
       47
 90
       41
 90
       48
 90
       40
 90
       49
 90
       39
 90
       50
 90
       38
 90
       51
 90
       37
 90
       52
 90
       36
 90
       53
 90
       35
 90
       54
 90
       34
 90
       55
 90
        3
 90
       10
 90
       56
 90
       58
 90
       58
 90
       59
 90
       57
 90
       59
 90
       56
 90
       57
 90
       60
 90
       61
 90
       61
 90
       63
 90
       62
 90
       63
 90
       60
 90
       62
 90
       57
 90
       61
 90
       56
 90
       60
 90
       59
 90
       63
 90
       58
 90
       62
 90
       64
 90
       66
 90
       66
 90
       67
 90
       65
 90
       67
 90
       64
 90
       65
 90
       68
 90
       69
 90
       69
 90
       71
 90
       70
 90
       71
 90
       68
 90
       70
 90
       65
 90
       69
 90
       64
 90
       68
 90
       67
 90
       71
 90
       66
 90
       70
 90
       80
 90
       81
 90
       81
 90
       82
 90
       82
 90
       83
 90
       83
 90
       84
 90
       84
 90
       85
 90
       85
 90
       86
 90
       86
 90
       87
 90
       87
 90
       88
 90
       88
 90
       89
 90
       89
 90
       90
 90
       90
 90
       91
 90
       91
 90
       92
 90
       92
 90
       93
 90
       93
 90
       94
 90
       94
 90
       95
 90
       95
 90
       96
 90
       96
 90
       97
 90
       97
 90
       98
 90
       98
 90
       99
 90
       99
 90
      100
 90
      100
 90
      101
 90
      101
 90
      102
 90
      102
 90
      103
 90
      103
 90
      104
 90
      104
 90
      105
 90
      105
 90
      106
 90
      106
 90
      107
 90
      107
 90
      108
 90
      108
 90
      109
 90
      109
 90
      110
 90
      110
 90
      111
 90
      111
 90
      112
 90
      112
 90
      113
 90
      113
 90
      114
 90
      114
 90
      115
 90
      115
 90
      116
 90
      116
 90
      117
 90
      117
 90
      118
 90
      118
 90
      119
 90
      119
 90
      120
 90
      120
 90
      121
 90
      121
 90
      122
 90
        4
 90
      122
 90
        7
 90
      122
 90
       72
 90
      122
 90
       72
 90
       73
 90
       73
 90
       74
 90
       74
 90
       75
 90
       75
 90
       76
 90
       76
 90
       77
 90
       77
 90
       78
 90
       78
 90
       79
 90
       79
 90
      277
 90
       80
 90
      277
 90
       89
 90
      278
 90
       91
 90
      278
 90
      121
 90
      279
 90
       72
 90
      279
 90
      158
 90
      159
 90
      157
 90
      158
 90
      156
 90
      157
 90
      155
 90
      156
 90
      154
 90
      155
 90
      153
 90
      154
 90
      152
 90
      153
 90
      151
 90
      152
 90
      150
 90
      151
 90
      149
 90
      150
 90
      148
 90
      149
 90
      147
 90
      148
 90
      146
 90
      147
 90
      145
 90
      146
 90
      144
 90
      145
 90
      143
 90
      144
 90
      142
 90
      143
 90
      141
 90
      142
 90
      140
 90
      141
 90
      139
 90
      140
 90
      138
 90
      139
 90
      137
 90
      138
 90
      136
 90
      137
 90
      135
 90
      136
 90
      134
 90
      135
 90
      133
 90
      134
 90
      132
 90
      133
 90
      131
 90
      132
 90
      130
 90
      131
 90
      129
 90
      130
 90
      128
 90
      129
 90
      127
 90
      128
 90
      126
 90
      127
 90
      125
 90
      126
 90
      123
 90
      125
 90
      123
 90
      124
 90
      124
 90
      172
 90
        5
 90
      172
 90
       10
 90
      172
 90
      171
 90
      172
 90
      170
 90
      171
 90
      169
 90
      170
 90
      168
 90
      169
 90
      167
 90
      168
 90
      166
 90
      167
 90
      165
 90
      166
 90
      164
 90
      165
 90
      163
 90
      164
 90
      162
 90
      163
 90
      161
 90
      162
 90
      160
 90
      161
 90
      159
 90
      160
 90
       74
 90
      175
 90
       73
 90
      174
 90
      174
 90
      175
 90
       76
 90
      177
 90
       75
 90
      176
 90
      176
 90
      177
 90
       78
 90
      179
 90
       77
 90
      178
 90
      178
 90
      179
 90
      181
 90
      277
 90
       79
 90
      180
 90
      180
 90
      181
 90
       81
 90
      183
 90
       80
 90
      182
 90
      182
 90
      183
 90
       83
 90
      185
 90
       82
 90
      184
 90
      184
 90
      185
 90
       85
 90
      187
 90
       84
 90
      186
 90
      186
 90
      187
 90
       87
 90
      189
 90
       86
 90
      188
 90
      188
 90
      189
 90
       89
 90
      191
 90
       88
 90
      190
 90
      190
 90
      191
 90
       91
 90
      193
 90
      192
 90
      278
 90
      192
 90
      193
 90
       93
 90
      195
 90
       92
 90
      194
 90
      194
 90
      195
 90
       95
 90
      197
 90
       94
 90
      196
 90
      196
 90
      197
 90
       97
 90
      199
 90
       96
 90
      198
 90
      198
 90
      199
 90
       99
 90
      201
 90
       98
 90
      200
 90
      200
 90
      201
 90
      101
 90
      203
 90
      100
 90
      202
 90
      202
 90
      203
 90
      103
 90
      205
 90
      102
 90
      204
 90
      204
 90
      205
 90
      105
 90
      207
 90
      104
 90
      206
 90
      206
 90
      207
 90
      107
 90
      209
 90
      106
 90
      208
 90
      208
 90
      209
 90
      109
 90
      211
 90
      108
 90
      210
 90
      210
 90
      211
 90
      111
 90
      213
 90
      110
 90
      212
 90
      212
 90
      213
 90
      113
 90
      215
 90
      112
 90
      214
 90
      214
 90
      215
 90
      115
 90
      217
 90
      114
 90
      216
 90
      216
 90
      217
 90
      117
 90
      219
 90
      116
 90
      218
 90
      218
 90
      219
 90
      119
 90
      221
 90
      118
 90
      220
 90
      220
 90
      221
 90
      121
 90
      223
 90
      120
 90
      222
 90
      222
 90
      223
 90
      224
 90
      279
 90
      173
 90
      224
 90
       72
 90
      173
 90
      224
 90
      276
 90
      225
 90
      276
 90
      173
 90
      225
 90
      225
 90
      226
 90
      174
 90
      226
 90
      173
 90
      174
 90
      226
 90
      227
 90
      175
 90
      227
 90
      227
 90
      228
 90
      176
 90
      228
 90
      175
 90
      176
 90
      228
 90
      229
 90
      177
 90
      229
 90
      229
 90
      230
 90
      178
 90
      230
 90
      177
 90
      178
 90
      230
 90
      231
 90
      179
 90
      231
 90
      231
 90
      232
 90
      180
 90
      232
 90
      179
 90
      180
 90
      232
 90
      233
 90
      181
 90
      233
 90
      233
 90
      234
 90
      182
 90
      234
 90
      181
 90
      182
 90
      234
 90
      235
 90
      183
 90
      235
 90
      235
 90
      236
 90
      184
 90
      236
 90
      183
 90
      184
 90
      236
 90
      237
 90
      185
 90
      237
 90
      237
 90
      238
 90
      186
 90
      238
 90
      185
 90
      186
 90
      238
 90
      239
 90
      187
 90
      239
 90
      239
 90
      240
 90
      188
 90
      240
 90
      187
 90
      188
 90
      240
 90
      241
 90
      189
 90
      241
 90
      241
 90
      242
 90
      190
 90
      242
 90
      189
 90
      190
 90
      242
 90
      243
 90
      191
 90
      243
 90
      243
 90
      244
 90
      192
 90
      244
 90
      191
 90
      192
 90
      244
 90
      245
 90
      193
 90
      245
 90
      245
 90
      246
 90
      194
 90
      246
 90
      193
 90
      194
 90
      246
 90
      247
 90
      195
 90
      247
 90
      247
 90
      248
 90
      196
 90
      248
 90
      195
 90
      196
 90
      248
 90
      249
 90
      197
 90
      249
 90
      249
 90
      250
 90
      198
 90
      250
 90
      197
 90
      198
 90
      250
 90
      251
 90
      199
 90
      251
 90
      251
 90
      252
 90
      200
 90
      252
 90
      199
 90
      200
 90
      252
 90
      253
 90
      201
 90
      253
 90
      253
 90
      254
 90
      202
 90
      254
 90
      201
 90
      202
 90
      254
 90
      255
 90
      203
 90
      255
 90
      255
 90
      256
 90
      204
 90
      256
 90
      203
 90
      204
 90
      256
 90
      257
 90
      205
 90
      257
 90
      257
 90
      258
 90
      206
 90
      258
 90
      205
 90
      206
 90
      258
 90
      259
 90
      207
 90
      259
 90
      259
 90
      260
 90
      208
 90
      260
 90
      207
 90
      208
 90
      260
 90
      261
 90
      209
 90
      261
 90
      261
 90
      262
 90
      210
 90
      262
 90
      209
 90
      210
 90
      262
 90
      263
 90
      211
 90
      263
 90
      263
 90
      264
 90
      212
 90
      264
 90
      211
 90
      212
 90
      264
 90
      265
 90
      213
 90
      265
 90
      265
 90
      266
 90
      214
 90
      266
 90
      213
 90
      214
 90
      266
 90
      267
 90
      215
 90
      267
 90
      267
 90
      268
 90
      216
 90
      268
 90
      215
 90
      216
 90
      268
 90
      269
 90
      217
 90
      269
 90
      269
 90
      270
 90
      218
 90
      270
 90
      217
 90
      218
 90
      270
 90
      271
 90
      219
 90
      271
 90
      271
 90
      272
 90
      220
 90
      272
 90
      219
 90
      220
 90
      272
 90
      273
 90
      221
 90
      273
 90
      273
 90
      274
 90
      222
 90
      274
 90
      221
 90
      222
 90
      274
 90
      275
 90
      223
 90
      275
 90
      275
 90
      276
 90
      223
 90
      224
 95
      428
140
0.0
140
0.0
140
0.0
140
0.0
140
0.0
140
0.0
140
0.0
140
0.0
140
0.0
140
0.0
140
0.0
140
0.0
140
0.0
140
0.0
140
0.0
140
0.0
140
0.0
140
0.0
140
0.0
140
0.0
140
0.0
140
0.0
140
0.0
140
0.0
140
0.0
140
0.0
140
0.0
140
0.0
140
0.0
140
0.0
140
0.0
140
0.0
140
0.0
140
0.0
140
0.0
140
0.0
140
0.0
140
0.0
140
0.0
140
0.0
140
0.0
140
0.0
140
0.0
140
0.0
140
0.0
140
0.0
140
0.0
140
0.0
140
0.0
140
0.0
140
0.0
140
0.0
140
0.0
140
0.0
140
0.0
140
0.0
140
0.0
140
0.0
140
0.0
140
0.0
140
0.0
140
0.0
140
0.0
140
0.0
140
0.0
140
0.0
140
0.0
140
0.0
140
0.0
140
0.0
140
0.0
140
0.0
140
0.0
140
0.0
140
0.0
140
0.0
140
0.0
140
0.0
140
0.0
140
0.0
140
0.0
140
0.0
140
0.0
140
0.0
140
0.0
140
0.0
140
0.0
140
0.0
140
0.0
140
0.0
140
0.0
140
0.0
140
0.0
140
0.0
140
0.0
140
0.0
140
0.0
140
0.0
140
0.0
140
0.0
140
0.0
140
0.0
140
0.0
140
0.0
140
0.0
140
0.0
140
0.0
140
0.0
140
0.0
140
0.0
140
0.0
140
0.0
140
0.0
140
0.0
140
0.0
140
0.0
140
0.0
140
0.0
140
0.0
140
0.0
140
0.0
140
0.0
140
0.0
140
0.0
140
0.0
140
0.0
140
0.0
140
0.0
140
0.0
140
0.0
140
0.0
140
0.0
140
0.0
140
0.0
140
0.0
140
0.0
140
0.0
140
0.0
140
0.0
140
0.0
140
0.0
140
0.0
140
0.0
140
0.0
140
0.0
140
0.0
140
0.0
140
0.0
140
0.0
140
0.0
140
0.0
140
0.0
140
0.0
140
0.0
140
0.0
140
0.0
140
0.0
140
0.0
140
0.0
140
0.0
140
0.0
140
0.0
140
0.0
140
0.0
140
0.0
140
0.0
140
0.0
140
0.0
140
0.0
140
0.0
140
0.0
140
0.0
140
0.0
140
0.0
140
0.0
140
0.0
140
0.0
140
0.0
140
0.0
140
0.0
140
0.0
140
0.0
140
0.0
140
0.0
140
0.0
140
0.0
140
0.0
140
0.0
140
0.0
140
0.0
140
0.0
140
0.0
140
0.0
140
0.0
140
0.0
140
0.0
140
0.0
140
0.0
140
0.0
140
0.0
140
0.0
140
0.0
140
0.0
140
0.0
140
0.0
140
0.0
140
0.0
140
0.0
140
0.0
140
0.0
140
0.0
140
0.0
140
0.0
140
0.0
140
0.0
140
0.0
140
0.0
140
0.0
140
0.0
140
0.0
140
0.0
140
0.0
140
0.0
140
0.0
140
0.0
140
0.0
140
0.0
140
0.0
140
0.0
140
0.0
140
0.0
140
0.0
140
0.0
140
0.0
140
0.0
140
0.0
140
0.0
140
0.0
140
0.0
140
0.0
140
0.0
140
0.0
140
0.0
140
0.0
140
0.0
140
0.0
140
0.0
140
0.0
140
0.0
140
0.0
140
0.0
140
0.0
140
0.0
140
0.0
140
0.0
140
0.0
140
0.0
140
0.0
140
0.0
140
0.0
140
0.0
140
0.0
140
0.0
140
0.0
140
0.0
140
0.0
140
0.0
140
0.0
140
0.0
140
0.0
140
0.0
140
0.0
140
0.0
140
0.0
140
0.0
140
0.0
140
0.0
140
0.0
140
0.0
140
0.0
140
0.0
140
0.0
140
0.0
140
0.0
140
0.0
140
0.0
140
0.0
140
0.0
140
0.0
140
0.0
140
0.0
140
0.0
140
0.0
140
0.0
140
0.0
140
0.0
140
0.0
140
0.0
140
0.0
140
0.0
140
0.0
140
0.0
140
0.0
140
0.0
140
0.0
140
0.0
140
0.0
140
0.0
140
0.0
140
0.0
140
0.0
140
0.0
140
0.0
140
0.0
140
0.0
140
0.0
140
0.0
140
0.0
140
0.0
140
0.0
140
0.0
140
0.0
140
0.0
140
0.0
140
0.0
140
0.0
140
0.0
140
0.0
140
0.0
140
0.0
140
0.0
140
0.0
140
0.0
140
0.0
140
0.0
140
0.0
140
0.0
140
0.0
140
0.0
140
0.0
140
0.0
140
0.0
140
0.0
140
0.0
140
0.0
140
0.0
140
0.0
140
0.0
140
0.0
140
0.0
140
0.0
140
0.0
140
0.0
140
0.0
140
0.0
140
0.0
140
0.0
140
0.0
140
0.0
140
0.0
140
0.0
140
0.0
140
0.0
140
0.0
140
0.0
140
0.0
140
0.0
140
0.0
140
0.0
140
0.0
140
0.0
140
0.0
140
0.0
140
0.0
140
0.0
140
0.0
140
0.0
140
0.0
140
0.0
140
0.0
140
0.0
140
0.0
140
0.0
140
0.0
140
0.0
140
0.0
140
0.0
140
0.0
140
0.0
140
0.0
140
0.0
140
0.0
140
0.0
140
0.0
140
0.0
140
0.0
140
0.0
140
0.0
140
0.0
140
0.0
140
0.0
140
0.0
140
0.0
140
0.0
140
0.0
140
0.0
140
0.0
140
0.0
140
0.0
140
0.0
140
0.0
140
0.0
140
0.0
140
0.0
140
0.0
140
0.0
140
0.0
140
0.0
140
0.0
140
0.0
140
0.0
140
0.0
140
0.0
140
0.0
140
0.0
140
0.0
140
0.0
140
0.0
 90
        0
  0
ENDSEC
  0
SECTION
  2
OBJECTS
  0
DICTIONARY
  5
C
330
0
100
AcDbDictionary
281
     1
  3
ACAD_COLOR
350
DC
  3
ACAD_DETAILVIEWSTYLE
350
F5
  3
ACAD_GROUP
350
D
  3
ACAD_LAYOUT
350
1A
  3
ACAD_MATERIAL
350
AA
  3
ACAD_MLEADERSTYLE
350
F1
  3
ACAD_MLINESTYLE
350
17
  3
ACAD_PLOTSETTINGS
350
19
  3
ACAD_PLOTSTYLENAME
350
E
  3
ACAD_SCALELIST
350
DF
  3
ACAD_SECTIONVIEWSTYLE
350
F3
  3
ACAD_TABLESTYLE
350
DD
  3
ACAD_VISUALSTYLE
350
C3
  3
ACDB_RECOMPOSE_DATA
350
106
  3
AcDbVariableDictionary
350
FA
  0
DICTIONARY
  5
DC
102
{ACAD_REACTORS
330
C
102
}
330
C
100
AcDbDictionary
281
     1
  0
DICTIONARY
  5
F5
102
{ACAD_REACTORS
330
C
102
}
330
C
100
AcDbDictionary
281
     1
  3
Imperial24
350
F6
  0
DICTIONARY
  5
D
102
{ACAD_REACTORS
330
C
102
}
330
C
100
AcDbDictionary
281
     1
  0
DICTIONARY
  5
1A
102
{ACAD_REACTORS
330
C
102
}
330
C
100
AcDbDictionary
281
     1
  3
Layout1
350
1E
  3
Layout2
350
26
  3
Model
350
22
  0
DICTIONARY
  5
AA
102
{ACAD_REACTORS
330
C
102
}
330
C
100
AcDbDictionary
281
     1
  3
ByBlock
350
B3
  3
ByLayer
350
AB
  3
Global
350
BB
  0
DICTIONARY
  5
F1
102
{ACAD_REACTORS
330
C
102
}
330
C
100
AcDbDictionary
281
     1
  3
Standard
350
F2
  0
DICTIONARY
  5
17
102
{ACAD_REACTORS
330
C
102
}
330
C
100
AcDbDictionary
281
     1
  3
Standard
350
18
  0
DICTIONARY
  5
19
102
{ACAD_REACTORS
330
C
102
}
330
C
100
AcDbDictionary
281
     1
  0
ACDBDICTIONARYWDFLT
  5
E
102
{ACAD_REACTORS
330
C
102
}
330
C
100
AcDbDictionary
281
     1
  3
ByLayer
350
2D
  3
Normal
350
F
100
AcDbDictionaryWithDefault
340
F
  0
DICTIONARY
  5
DF
102
{ACAD_REACTORS
330
C
102
}
330
C
100
AcDbDictionary
281
     1
  3
A0
350
E0
  3
A1
350
E1
  3
A2
350
E2
  3
A3
350
E3
  3
A4
350
E4
  3
A5
350
E5
  3
A6
350
E6
  3
A7
350
E7
  3
A8
350
E8
  3
A9
350
E9
  3
B0
350
EA
  3
B1
350
EB
  3
B2
350
EC
  3
B3
350
ED
  3
B4
350
EE
  3
B5
350
EF
  3
B6
350
F0
  0
DICTIONARY
  5
F3
102
{ACAD_REACTORS
330
C
102
}
330
C
100
AcDbDictionary
281
     1
  3
Imperial24
350
F4
  0
DICTIONARY
  5
DD
102
{ACAD_REACTORS
330
C
102
}
330
C
100
AcDbDictionary
281
     1
  3
Standard
350
DE
  0
DICTIONARY
  5
C3
102
{ACAD_REACTORS
330
C
102
}
330
C
100
AcDbDictionary
281
     1
  3
2dWireframe
350
C9
  3
Basic
350
C8
  3
Brighten
350
CF
  3
ColorChange
350
D3
  3
Conceptual
350
CC
  3
Dim
350
CE
  3
EdgeColorOff
350
DB
  3
Facepattern
350
D2
  3
Flat
350
C4
  3
FlatWithEdges
350
C5
  3
Gouraud
350
C6
  3
GouraudWithEdges
350
C7
  3
Hidden
350
CB
  3
JitterOff
350
D9
  3
Linepattern
350
D1
  3
OverhangOff
350
DA
  3
Realistic
350
CD
  3
Shaded
350
D8
  3
Shaded with edges
350
D7
  3
Shades of Gray
350
D4
  3
Sketchy
350
D5
  3
Thicken
350
D0
  3
Wireframe
350
CA
  3
X-Ray
350
D6
  0
XRECORD
  5
106
102
{ACAD_REACTORS
330
C
102
}
330
C
100
AcDbXrecord
280
     1
 90
        1
330
DE
  0
DICTIONARY
  5
FA
102
{ACAD_REACTORS
330
C
102
}
330
C
100
AcDbDictionary
281
     1
  3
CANNOSCALE
350
100
  3
CMLEADERSTYLE
350
FC
  3
CTABLESTYLE
350
FB
  3
CVIEWDETAILSTYLE
350
FD
  3
CVIEWSECTIONSTYLE
350
FE
  3
LAYEREVAL
350
102
  3
LAYERNOTIFY
350
103
  3
LIGHTINGUNITS
350
101
  3
MSLTSCALE
350
FF
  0
ACDBDETAILVIEWSTYLE
  5
F6
102
{ACAD_XDICTIONARY
360
13B
102
}
102
{ACAD_REACTORS
330
F5
102
}
330
F5
100
AcDbModelDocViewStyle
 70
     0
  3
Imperial24
290
     0
100
AcDbDetailViewStyle
 70
     0
 71
     0
 90
        3
 71
     1
340
11
 62
   256
 40
0.24
340
0
 62
   256
 40
0.24
300

 40
0.36
280
     3
 71
     2
340
16
 90
       25
 62
   256
 71
     3
340
11
 62
   256
 40
0.24
 90
        1
 40
0.75
 90
        1
300
%<\AcVar ViewType \f "%tc1">% %<\AcVar ViewDetailId>%\PSCALE %<\AcVar ViewScale \f "%sn">%
 71
     4
340
16
 90
       25
 62
   256
340
16
 90
       25
 62
   256
280
     0
  0
LAYOUT
  5
1E
102
{ACAD_REACTORS
330
1A
102
}
330
1A
100
AcDbPlotSettings
  1

  2
\\KTXNTBDC\CASF2PN1
  4

  6

 40
0.0
 41
0.0
 42
0.0
 43
0.0
 44
0.0
 45
0.0
 46
0.0
 47
0.0
 48
0.0
 49
0.0
140
0.0
141
0.0
142
1.0
143
1.0
 70
   688
 72
     0
 73
     0
 74
     5
  7

 75
    16
147
1.0
 76
     0
 77
     2
 78
   300
148
0.0
149
0.0
100
AcDbLayout
  1
Layout1
 70
     1
 71
     1
 10
0.0
 20
0.0
 11
12.0
 21
9.0
 12
0.0
 22
0.0
 32
0.0
 14
1.000000000000000E+20
 24
1.000000000000000E+20
 34
1.000000000000000E+20
 15
-1.000000000000000E+20
 25
-1.000000000000000E+20
 35
-1.000000000000000E+20
146
0.0
 13
0.0
 23
0.0
 33
0.0
 16
1.0
 26
0.0
 36
0.0
 17
0.0
 27
1.0
 37
0.0
 76
     0
330
1B
  0
LAYOUT
  5
26
102
{ACAD_REACTORS
330
1A
102
}
330
1A
100
AcDbPlotSettings
  1

  2
\\KTXNTBDC\CASF2PN1
  4

  6

 40
0.0
 41
0.0
 42
0.0
 43
0.0
 44
0.0
 45
0.0
 46
0.0
 47
0.0
 48
0.0
 49
0.0
140
0.0
141
0.0
142
1.0
143
1.0
 70
   688
 72
     0
 73
     0
 74
     5
  7

 75
    16
147
1.0
 76
     0
 77
     2
 78
   300
148
0.0
149
0.0
100
AcDbLayout
  1
Layout2
 70
     1
 71
     2
 10
0.0
 20
0.0
 11
12.0
 21
9.0
 12
0.0
 22
0.0
 32
0.0
 14
0.0
 24
0.0
 34
0.0
 15
0.0
 25
0.0
 35
0.0
146
0.0
 13
0.0
 23
0.0
 33
0.0
 16
1.0
 26
0.0
 36
0.0
 17
0.0
 27
1.0
 37
0.0
 76
     0
330
23
  0
LAYOUT
  5
22
102
{ACAD_REACTORS
330
1A
102
}
330
1A
100
AcDbPlotSettings
  1

  2
\\KTXNTBDC\CASF2PN1
  4

  6

 40
0.0
 41
0.0
 42
0.0
 43
0.0
 44
0.0
 45
0.0
 46
0.0
 47
0.0
 48
0.0
 49
0.0
140
0.0
141
0.0
142
1.0
143
1.0
 70
  1712
 72
     0
 73
     0
 74
     0
  7

 75
     0
147
1.0
 76
     0
 77
     2
 78
   300
148
0.0
149
0.0
100
AcDbLayout
  1
Model
 70
     1
 71
     0
 10
0.0
 20
0.0
 11
12.0
 21
9.0
 12
0.0
 22
0.0
 32
0.0
 14
0.0
 24
0.0
 34
0.0
 15
0.0
 25
0.0
 35
0.0
146
0.0
 13
0.0
 23
0.0
 33
0.0
 16
1.0
 26
0.0
 36
0.0
 17
0.0
 27
1.0
 37
0.0
 76
     0
330
1F
  0
MATERIAL
  5
B3
102
{ACAD_XDICTIONARY
360
B4
102
}
102
{ACAD_REACTORS
330
AA
102
}
330
AA
100
AcDbMaterial
  1
ByBlock
 72
     0
 43
0.0208333333333333
 43
0.0
 43
0.0
 43
0.0
 43
0.0
 43
0.0208333333333333
 43
0.0
 43
0.0
 43
0.0
 43
0.0
 43
1.0
 43
0.0
 43
0.0
 43
0.0
 43
0.0
 43
1.0
 77
     0
 47
0.0208333333333333
 47
0.0
 47
0.0
 47
0.0
 47
0.0
 47
0.0208333333333333
 47
0.0
 47
0.0
 47
0.0
 47
0.0
 47
1.0
 47
0.0
 47
0.0
 47
0.0
 47
0.0
 47
1.0
171
     0
 49
0.0208333333333333
 49
0.0
 49
0.0
 49
0.0
 49
0.0
 49
0.0208333333333333
 49
0.0
 49
0.0
 49
0.0
 49
0.0
 49
1.0
 49
0.0
 49
0.0
 49
0.0
 49
0.0
 49
1.0
175
     0
142
0.0208333333333333
142
0.0
142
0.0
142
0.0
142
0.0
142
0.0208333333333333
142
0.0
142
0.0
142
0.0
142
0.0
142
1.0
142
0.0
142
0.0
142
0.0
142
0.0
142
1.0
179
     0
144
0.0208333333333333
144
0.0
144
0.0
144
0.0
144
0.0
144
0.0208333333333333
144
0.0
144
0.0
144
0.0
144
0.0
144
1.0
144
0.0
144
0.0
144
0.0
144
0.0
144
1.0
147
0.0208333333333333
147
0.0
147
0.0
147
0.0
147
0.0
147
0.0208333333333333
147
0.0
147
0.0
147
0.0
147
0.0
147
1.0
147
0.0
147
0.0
147
0.0
147
0.0
147
1.0
  0
MATERIAL
  5
AB
102
{ACAD_XDICTIONARY
360
AC
102
}
102
{ACAD_REACTORS
330
AA
102
}
330
AA
100
AcDbMaterial
  1
ByLayer
 72
     0
 43
0.0208333333333333
 43
0.0
 43
0.0
 43
0.0
 43
0.0
 43
0.0208333333333333
 43
0.0
 43
0.0
 43
0.0
 43
0.0
 43
1.0
 43
0.0
 43
0.0
 43
0.0
 43
0.0
 43
1.0
 77
     0
 47
0.0208333333333333
 47
0.0
 47
0.0
 47
0.0
 47
0.0
 47
0.0208333333333333
 47
0.0
 47
0.0
 47
0.0
 47
0.0
 47
1.0
 47
0.0
 47
0.0
 47
0.0
 47
0.0
 47
1.0
171
     0
 49
0.0208333333333333
 49
0.0
 49
0.0
 49
0.0
 49
0.0
 49
0.0208333333333333
 49
0.0
 49
0.0
 49
0.0
 49
0.0
 49
1.0
 49
0.0
 49
0.0
 49
0.0
 49
0.0
 49
1.0
175
     0
142
0.0208333333333333
142
0.0
142
0.0
142
0.0
142
0.0
142
0.0208333333333333
142
0.0
142
0.0
142
0.0
142
0.0
142
1.0
142
0.0
142
0.0
142
0.0
142
0.0
142
1.0
179
     0
144
0.0208333333333333
144
0.0
144
0.0
144
0.0
144
0.0
144
0.0208333333333333
144
0.0
144
0.0
144
0.0
144
0.0
144
1.0
144
0.0
144
0.0
144
0.0
144
0.0
144
1.0
147
0.0208333333333333
147
0.0
147
0.0
147
0.0
147
0.0
147
0.0208333333333333
147
0.0
147
0.0
147
0.0
147
0.0
147
1.0
147
0.0
147
0.0
147
0.0
147
0.0
147
1.0
  0
MATERIAL
  5
BB
102
{ACAD_XDICTIONARY
360
BC
102
}
102
{ACAD_REACTORS
330
AA
102
}
330
AA
100
AcDbMaterial
  1
Global
 72
     0
 43
0.0208333333333333
 43
0.0
 43
0.0
 43
0.0
 43
0.0
 43
0.0208333333333333
 43
0.0
 43
0.0
 43
0.0
 43
0.0
 43
1.0
 43
0.0
 43
0.0
 43
0.0
 43
0.0
 43
1.0
 77
     0
 47
0.0208333333333333
 47
0.0
 47
0.0
 47
0.0
 47
0.0
 47
0.0208333333333333
 47
0.0
 47
0.0
 47
0.0
 47
0.0
 47
1.0
 47
0.0
 47
0.0
 47
0.0
 47
0.0
 47
1.0
171
     0
 49
0.0208333333333333
 49
0.0
 49
0.0
 49
0.0
 49
0.0
 49
0.0208333333333333
 49
0.0
 49
0.0
 49
0.0
 49
0.0
 49
1.0
 49
0.0
 49
0.0
 49
0.0
 49
0.0
 49
1.0
175
     0
142
0.0208333333333333
142
0.0
142
0.0
142
0.0
142
0.0
142
0.0208333333333333
142
0.0
142
0.0
142
0.0
142
0.0
142
1.0
142
0.0
142
0.0
142
0.0
142
0.0
142
1.0
179
     0
144
0.0208333333333333
144
0.0
144
0.0
144
0.0
144
0.0
144
0.0208333333333333
144
0.0
144
0.0
144
0.0
144
0.0
144
1.0
144
0.0
144
0.0
144
0.0
144
0.0
144
1.0
147
0.0208333333333333
147
0.0
147
0.0
147
0.0
147
0.0
147
0.0208333333333333
147
0.0
147
0.0
147
0.0
147
0.0
147
1.0
147
0.0
147
0.0
147
0.0
147
0.0
147
1.0
  0
MLEADERSTYLE
  5
F2
102
{ACAD_XDICTIONARY
360
137
102
}
102
{ACAD_REACTORS
330
F1
102
}
330
F1
100
AcDbMLeaderStyle
179
     2
170
     2
171
     1
172
     0
 90
        2
 40
0.0
 41
0.0
173
     1
 91
-1056964608
340
14
 92
       -2
290
     1
 42
0.09
291
     1
 43
0.36
  3
Standard
 44
0.18
300

342
11
174
     1
178
     6
175
     1
176
     0
 93
-1056964608
 45
0.18
292
     0
297
     0
 46
0.18
 94
-1056964608
 47
1.0
 49
1.0
140
1.0
293
     1
141
0.0
294
     1
177
     0
142
1.0
295
     0
296
     0
143
0.125
271
     0
272
     9
273
     9
  0
MLINESTYLE
  5
18
102
{ACAD_REACTORS
330
17
102
}
330
17
100
AcDbMlineStyle
  2
STANDARD
 70
     0
  3

 62
   256
 51
90.0
 52
90.0
 71
     2
 49
0.5
 62
   256
  6
BYLAYER
 49
-0.5
 62
   256
  6
BYLAYER
  0
ACDBPLACEHOLDER
  5
2D
102
{ACAD_REACTORS
330
E
102
}
330
E
  0
ACDBPLACEHOLDER
  5
F
102
{ACAD_REACTORS
330
E
102
}
330
E
  0
SCALE
  5
E0
102
{ACAD_REACTORS
330
DF
102
}
330
DF
100
AcDbScale
 70
     0
300
1:1
140
1.0
141
1.0
290
     1
  0
SCALE
  5
E1
102
{ACAD_REACTORS
330
DF
102
}
330
DF
100
AcDbScale
 70
     0
300
1/128" = 1'-0"
140
0.0078125
141
12.0
290
     0
  0
SCALE
  5
E2
102
{ACAD_REACTORS
330
DF
102
}
330
DF
100
AcDbScale
 70
     0
300
1/64" = 1'-0"
140
0.015625
141
12.0
290
     0
  0
SCALE
  5
E3
102
{ACAD_REACTORS
330
DF
102
}
330
DF
100
AcDbScale
 70
     0
300
1/32" = 1'-0"
140
0.03125
141
12.0
290
     0
  0
SCALE
  5
E4
102
{ACAD_REACTORS
330
DF
102
}
330
DF
100
AcDbScale
 70
     0
300
1/16" = 1'-0"
140
0.0625
141
12.0
290
     0
  0
SCALE
  5
E5
102
{ACAD_REACTORS
330
DF
102
}
330
DF
100
AcDbScale
 70
     0
300
3/32" = 1'-0"
140
0.09375
141
12.0
290
     0
  0
SCALE
  5
E6
102
{ACAD_REACTORS
330
DF
102
}
330
DF
100
AcDbScale
 70
     0
300
1/8" = 1'-0"
140
0.125
141
12.0
290
     0
  0
SCALE
  5
E7
102
{ACAD_REACTORS
330
DF
102
}
330
DF
100
AcDbScale
 70
     0
300
3/16" = 1'-0"
140
0.1875
141
12.0
290
     0
  0
SCALE
  5
E8
102
{ACAD_REACTORS
330
DF
102
}
330
DF
100
AcDbScale
 70
     0
300
1/4" = 1'-0"
140
0.25
141
12.0
290
     0
  0
SCALE
  5
E9
102
{ACAD_REACTORS
330
DF
102
}
330
DF
100
AcDbScale
 70
     0
300
3/8" = 1'-0"
140
0.375
141
12.0
290
     0
  0
SCALE
  5
EA
102
{ACAD_REACTORS
330
DF
102
}
330
DF
100
AcDbScale
 70
     0
300
1/2" = 1'-0"
140
0.5
141
12.0
290
     0
  0
SCALE
  5
EB
102
{ACAD_REACTORS
330
DF
102
}
330
DF
100
AcDbScale
 70
     0
300
3/4" = 1'-0"
140
0.75
141
12.0
290
     0
  0
SCALE
  5
EC
102
{ACAD_REACTORS
330
DF
102
}
330
DF
100
AcDbScale
 70
     0
300
1" = 1'-0"
140
1.0
141
12.0
290
     0
  0
SCALE
  5
ED
102
{ACAD_REACTORS
330
DF
102
}
330
DF
100
AcDbScale
 70
     0
300
1-1/2" = 1'-0"
140
1.5
141
12.0
290
     0
  0
SCALE
  5
EE
102
{ACAD_REACTORS
330
DF
102
}
330
DF
100
AcDbScale
 70
     0
300
3" = 1'-0"
140
3.0
141
12.0
290
     0
  0
SCALE
  5
EF
102
{ACAD_REACTORS
330
DF
102
}
330
DF
100
AcDbScale
 70
     0
300
6" = 1'-0"
140
6.0
141
12.0
290
     0
  0
SCALE
  5
F0
102
{ACAD_REACTORS
330
DF
102
}
330
DF
100
AcDbScale
 70
     0
300
1'-0" = 1'-0"
140
12.0
141
12.0
290
     0
  0
ACDBSECTIONVIEWSTYLE
  5
F4
102
{ACAD_XDICTIONARY
360
139
102
}
102
{ACAD_REACTORS
330
F3
102
}
330
F3
100
AcDbModelDocViewStyle
 70
     0
  3
Imperial24
290
     0
100
AcDbSectionViewStyle
 70
     0
 71
     0
 90
       78
 71
     1
340
11
 62
   256
 40
0.24
340
0
340
0
 62
   256
 40
0.24
300
I, O, Q, S, X, Z
 40
0.48
 90
        3
 40
0.18
 90
        1
 71
     2
340
16
 90
       25
 62
   256
340
16
 90
       50
 62
   256
 40
0.24
 40
0.0
 40
0.24
 71
     3
340
11
 62
   256
 40
0.24
 90
        1
 40
0.75
 90
        1
300
%<\AcVar ViewType \f "%tc1">% %<\AcVar ViewSectionStartId>%-%<\AcVar ViewSectionEndId>%\PSCALE %<\AcVar ViewScale \f "%sn">%
 71
     4
 62
   256
 62
   257
300
ANSI31
 40
1.0
 90
        0
290
     0
290
     0
 90
        6
 40
0.0
 40
1.570796326794896
 40
0.2617993877991494
 40
1.308996938995747
 40
-0.2617993877991494
 40
1.832595714594046
  0
TABLESTYLE
  5
DE
102
{ACAD_XDICTIONARY
360
104
102
}
102
{ACAD_REACTORS
330
DD
102
}
330
DD
100
AcDbTableStyle
280
     0
  3
Standard
 70
     0
 71
     0
 40
0.06
 41
0.06
280
     0
281
     0
  7
Standard
140
0.18
170
     2
 62
     0
 63
     7
283
     0
 90
      512
 91
        0
  1

274
    -2
284
     1
 64
     0
275
    -2
285
     1
 65
     0
276
    -2
286
     1
 66
     0
277
    -2
287
     1
 67
     0
278
    -2
288
     1
 68
     0
279
    -2
289
     1
 69
     0
  7
Standard
140
0.25
170
     5
 62
     0
 63
     7
283
     0
 90
      512
 91
        0
  1

274
    -2
284
     1
 64
     0
275
    -2
285
     1
 65
     0
276
    -2
286
     1
 66
     0
277
    -2
287
     1
 67
     0
278
    -2
288
     1
 68
     0
279
    -2
289
     1
 69
     0
  7
Standard
140
0.18
170
     5
 62
     0
 63
     7
283
     0
 90
      512
 91
        0
  1

274
    -2
284
     1
 64
     0
275
    -2
285
     1
 65
     0
276
    -2
286
     1
 66
     0
277
    -2
287
     1
 67
     0
278
    -2
288
     1
 68
     0
279
    -2
289
     1
 69
     0
  0
VISUALSTYLE
  5
C9
102
{ACAD_XDICTIONARY
360
111
102
}
102
{ACAD_REACTORS
330
C3
102
}
330
C3
100
AcDbVisualStyle
  2
2dWireframe
 70
     4
177
     2
291
     0
 71
     0
176
     1
 72
     2
176
     1
 73
     0
176
     1
 90
        0
176
     1
 40
0.6
176
     1
 41
30.0
176
     1
 63
     7
421
 16777215
176
     1
 74
     1
176
     1
 91
        4
176
     1
 64
     7
176
     1
 65
   257
176
     1
 75
     1
176
     1
175
     1
176
     1
 42
1.0
176
     1
 92
        0
176
     1
 66
   257
176
     1
 43
1.0
176
     1
 76
     1
176
     1
 77
     6
176
     1
 78
     2
176
     1
 67
     7
176
     1
 79
     5
176
     1
170
     0
176
     1
171
     0
176
     1
290
     0
176
     1
 93
        1
176
     1
 44
0.0
176
     1
173
     0
176
     1
1001
ACAD
1000
AcDbSavedByObjectVersion
1070
     0
  0
VISUALSTYLE
  5
C8
102
{ACAD_XDICTIONARY
360
10F
102
}
102
{ACAD_REACTORS
330
C3
102
}
330
C3
100
AcDbVisualStyle
  2
Basic
 70
     7
177
     2
291
     1
 71
     1
176
     1
 72
     0
176
     1
 73
     1
176
     1
 90
        0
176
     1
 40
0.6
176
     1
 41
30.0
176
     1
 63
     7
421
 16777215
176
     1
 74
     0
176
     1
 91
        4
176
     1
 64
     7
176
     1
 65
   257
176
     1
 75
     1
176
     1
175
     1
176
     1
 42
1.0
176
     1
 92
        8
176
     1
 66
     7
176
     1
 43
1.0
176
     1
 76
     1
176
     1
 77
     6
176
     1
 78
     2
176
     1
 67
     7
176
     1
 79
     5
176
     1
170
     0
176
     1
171
     0
176
     1
290
     0
176
     1
 93
        1
176
     1
 44
0.0
176
     1
173
     0
176
     1
1001
ACAD
1000
AcDbSavedByObjectVersion
1070
     0
  0
VISUALSTYLE
  5
CF
102
{ACAD_XDICTIONARY
360
11D
102
}
102
{ACAD_REACTORS
330
C3
102
}
330
C3
100
AcDbVisualStyle
  2
Brighten
 70
    12
177
     2
291
     1
 71
     2
176
     1
 72
     2
176
     1
 73
     0
176
     1
 90
        0
176
     1
 40
0.6
176
     1
 41
30.0
176
     1
 63
     7
421
 16777215
176
     1
 74
     1
176
     1
 91
        4
176
     1
 64
     7
176
     1
 65
   257
176
     1
 75
     1
176
     1
175
     1
176
     1
 42
1.0
176
     1
 92
        8
176
     1
 66
     7
176
     1
 43
1.0
176
     1
 76
     1
176
     1
 77
     6
176
     1
 78
     2
176
     1
 67
     7
176
     1
 79
     5
176
     1
170
     0
176
     1
171
     0
176
     1
290
     0
176
     1
 93
        1
176
     1
 44
50.0
176
     1
173
     0
176
     1
1001
ACAD
1000
AcDbSavedByObjectVersion
1070
     0
  0
VISUALSTYLE
  5
D3
102
{ACAD_XDICTIONARY
360
125
102
}
102
{ACAD_REACTORS
330
C3
102
}
330
C3
100
AcDbVisualStyle
  2
ColorChange
 70
    16
177
     2
291
     1
 71
     2
176
     1
 72
     2
176
     1
 73
     3
176
     1
 90
        0
176
     1
 40
0.6
176
     1
 41
30.0
176
     1
 63
     8
421
  8421504
176
     1
 74
     1
176
     1
 91
        4
176
     1
 64
     7
176
     1
 65
   257
176
     1
 75
     1
176
     1
175
     1
176
     1
 42
1.0
176
     1
 92
        8
176
     1
 66
     8
424
  8421504
176
     1
 43
1.0
176
     1
 76
     1
176
     1
 77
     6
176
     1
 78
     2
176
     1
 67
     7
176
     1
 79
     5
176
     1
170
     0
176
     1
171
     0
176
     1
290
     0
176
     1
 93
        1
176
     1
 44
0.0
176
     1
173
     0
176
     1
1001
ACAD
1000
AcDbSavedByObjectVersion
1070
     0
  0
VISUALSTYLE
  5
CC
102
{ACAD_XDICTIONARY
360
117
102
}
102
{ACAD_REACTORS
330
C3
102
}
330
C3
100
AcDbVisualStyle
  2
Conceptual
 70
     9
177
     2
291
     0
 71
     3
176
     1
 72
     2
176
     1
 73
     0
176
     1
 90
        0
176
     1
 40
0.6
176
     1
 41
30.0
176
     1
 63
     7
421
 16777215
176
     1
 74
     2
176
     1
 91
        2
176
     1
 64
     7
176
     1
 65
   257
176
     1
 75
     1
176
     1
175
     1
176
     1
 42
179.0
176
     1
 92
        8
176
     1
 66
     7
176
     1
 43
1.0
176
     1
 76
     1
176
     1
 77
     6
176
     1
 78
     2
176
     1
 67
     7
176
     1
 79
     3
176
     1
170
     0
176
     1
171
     0
176
     1
290
     0
176
     1
 93
        1
176
     1
 44
0.0
176
     1
173
     0
176
     1
1001
ACAD
1000
AcDbSavedByObjectVersion
1070
     0
  0
VISUALSTYLE
  5
CE
102
{ACAD_XDICTIONARY
360
11B
102
}
102
{ACAD_REACTORS
330
C3
102
}
330
C3
100
AcDbVisualStyle
  2
Dim
 70
    11
177
     2
291
     1
 71
     2
176
     1
 72
     2
176
     1
 73
     0
176
     1
 90
        0
176
     1
 40
0.6
176
     1
 41
30.0
176
     1
 63
     7
421
 16777215
176
     1
 74
     1
176
     1
 91
        4
176
     1
 64
     7
176
     1
 65
   257
176
     1
 75
     1
176
     1
175
     1
176
     1
 42
1.0
176
     1
 92
        8
176
     1
 66
     7
176
     1
 43
1.0
176
     1
 76
     1
176
     1
 77
     6
176
     1
 78
     2
176
     1
 67
     7
176
     1
 79
     5
176
     1
170
     0
176
     1
171
     0
176
     1
290
     0
176
     1
 93
        1
176
     1
 44
-50.0
176
     1
173
     0
176
     1
1001
ACAD
1000
AcDbSavedByObjectVersion
1070
     0
  0
VISUALSTYLE
  5
DB
102
{ACAD_XDICTIONARY
360
135
102
}
102
{ACAD_REACTORS
330
C3
102
}
330
C3
100
AcDbVisualStyle
  2
EdgeColorOff
 70
    22
177
     2
291
     1
 71
     2
176
     0
 72
     2
176
     0
 73
     0
176
     0
 90
        0
176
     0
 40
0.6
176
     0
 41
30.0
176
     0
 63
     7
421
 16777215
176
     0
 74
     1
176
     0
 91
        4
176
     0
 64
     7
176
     0
 65
   257
176
     0
 75
     1
176
     0
175
     1
176
     0
 42
1.0
176
     0
 92
        8
176
     2
 66
     7
176
     0
 43
1.0
176
     0
 76
     1
176
     0
 77
     6
176
     0
 78
     2
176
     0
 67
     7
176
     0
 79
     5
176
     0
170
     0
176
     0
171
     0
176
     0
290
     0
176
     0
 93
        1
176
     0
 44
0.0
176
     0
173
     0
176
     0
1001
ACAD
1000
AcDbSavedByObjectVersion
1070
     0
  0
VISUALSTYLE
  5
D2
102
{ACAD_XDICTIONARY
360
123
102
}
102
{ACAD_REACTORS
330
C3
102
}
330
C3
100
AcDbVisualStyle
  2
Facepattern
 70
    15
177
     2
291
     1
 71
     2
176
     1
 72
     2
176
     1
 73
     0
176
     1
 90
        0
176
     1
 40
0.6
176
     1
 41
30.0
176
     1
 63
     7
421
 16777215
176
     1
 74
     1
176
     1
 91
        4
176
     1
 64
     7
176
     1
 65
   257
176
     1
 75
     1
176
     1
175
     1
176
     1
 42
1.0
176
     1
 92
        8
176
     1
 66
     7
176
     1
 43
1.0
176
     1
 76
     1
176
     1
 77
     6
176
     1
 78
     2
176
     1
 67
     7
176
     1
 79
     5
176
     1
170
     0
176
     1
171
     0
176
     1
290
     0
176
     1
 93
        1
176
     1
 44
0.0
176
     1
173
     0
176
     1
1001
ACAD
1000
AcDbSavedByObjectVersion
1070
     0
  0
VISUALSTYLE
  5
C4
102
{ACAD_XDICTIONARY
360
107
102
}
102
{ACAD_REACTORS
330
C3
102
}
330
C3
100
AcDbVisualStyle
  2
Flat
 70
     0
177
     2
291
     1
 71
     2
176
     1
 72
     1
176
     1
 73
     1
176
     1
 90
        2
176
     1
 40
0.6
176
     1
 41
30.0
176
     1
 63
     7
421
 16777215
176
     1
 74
     0
176
     1
 91
        0
176
     1
 64
     7
176
     1
 65
   257
176
     1
 75
     1
176
     1
175
     1
176
     1
 42
1.0
176
     1
 92
        8
176
     1
 66
     7
176
     1
 43
1.0
176
     1
 76
     1
176
     1
 77
     6
176
     1
 78
     2
176
     1
 67
     7
176
     1
 79
     5
176
     1
170
     0
176
     1
171
     0
176
     1
290
     0
176
     1
 93
       13
176
     1
 44
0.0
176
     1
173
     0
176
     1
1001
ACAD
1000
AcDbSavedByObjectVersion
1070
     0
  0
VISUALSTYLE
  5
C5
102
{ACAD_XDICTIONARY
360
109
102
}
102
{ACAD_REACTORS
330
C3
102
}
330
C3
100
AcDbVisualStyle
  2
FlatWithEdges
 70
     1
177
     2
291
     1
 71
     2
176
     1
 72
     1
176
     1
 73
     1
176
     1
 90
        2
176
     1
 40
0.6
176
     1
 41
30.0
176
     1
 63
     7
421
 16777215
176
     1
 74
     1
176
     1
 91
        0
176
     1
 64
     7
176
     1
 65
   257
176
     1
 75
     1
176
     1
175
     1
176
     1
 42
1.0
176
     1
 92
        0
176
     1
 66
   257
176
     1
 43
1.0
176
     1
 76
     1
176
     1
 77
     6
176
     1
 78
     2
176
     1
 67
     7
176
     1
 79
     5
176
     1
170
     0
176
     1
171
     0
176
     1
290
     0
176
     1
 93
       13
176
     1
 44
0.0
176
     1
173
     0
176
     1
1001
ACAD
1000
AcDbSavedByObjectVersion
1070
     0
  0
VISUALSTYLE
  5
C6
102
{ACAD_XDICTIONARY
360
10B
102
}
102
{ACAD_REACTORS
330
C3
102
}
330
C3
100
AcDbVisualStyle
  2
Gouraud
 70
     2
177
     2
291
     1
 71
     2
176
     1
 72
     2
176
     1
 73
     1
176
     1
 90
        2
176
     1
 40
0.6
176
     1
 41
30.0
176
     1
 63
     7
421
 16777215
176
     1
 74
     0
176
     1
 91
        0
176
     1
 64
     7
176
     1
 65
   257
176
     1
 75
     1
176
     1
175
     1
176
     1
 42
1.0
176
     1
 92
        0
176
     1
 66
     7
176
     1
 43
1.0
176
     1
 76
     1
176
     1
 77
     6
176
     1
 78
     2
176
     1
 67
     7
176
     1
 79
     5
176
     1
170
     0
176
     1
171
     0
176
     1
290
     0
176
     1
 93
       13
176
     1
 44
0.0
176
     1
173
     0
176
     1
1001
ACAD
1000
AcDbSavedByObjectVersion
1070
     0
  0
VISUALSTYLE
  5
C7
102
{ACAD_XDICTIONARY
360
10D
102
}
102
{ACAD_REACTORS
330
C3
102
}
330
C3
100
AcDbVisualStyle
  2
GouraudWithEdges
 70
     3
177
     2
291
     1
 71
     2
176
     1
 72
     2
176
     1
 73
     1
176
     1
 90
        2
176
     1
 40
0.6
176
     1
 41
30.0
176
     1
 63
     7
421
 16777215
176
     1
 74
     1
176
     1
 91
        0
176
     1
 64
     7
176
     1
 65
   257
176
     1
 75
     1
176
     1
175
     1
176
     1
 42
1.0
176
     1
 92
        0
176
     1
 66
   257
176
     1
 43
1.0
176
     1
 76
     1
176
     1
 77
     6
176
     1
 78
     2
176
     1
 67
     7
176
     1
 79
     5
176
     1
170
     0
176
     1
171
     0
176
     1
290
     0
176
     1
 93
       13
176
     1
 44
0.0
176
     1
173
     0
176
     1
1001
ACAD
1000
AcDbSavedByObjectVersion
1070
     0
  0
VISUALSTYLE
  5
CB
102
{ACAD_XDICTIONARY
360
115
102
}
102
{ACAD_REACTORS
330
C3
102
}
330
C3
100
AcDbVisualStyle
  2
Hidden
 70
     6
177
     2
291
     0
 71
     1
176
     1
 72
     2
176
     1
 73
     2
176
     1
 90
        0
176
     1
 40
0.6
176
     1
 41
30.0
176
     1
 63
     7
421
 16777215
176
     1
 74
     2
176
     1
 91
        2
176
     1
 64
     7
176
     1
 65
   257
176
     1
 75
     2
176
     1
175
     1
176
     1
 42
40.0
176
     1
 92
        0
176
     1
 66
   257
176
     1
 43
1.0
176
     1
 76
     1
176
     1
 77
     6
176
     1
 78
     2
176
     1
 67
     7
176
     1
 79
     3
176
     1
170
     0
176
     1
171
     0
176
     1
290
     0
176
     1
 93
        1
176
     1
 44
0.0
176
     1
173
     0
176
     1
1001
ACAD
1000
AcDbSavedByObjectVersion
1070
     0
  0
VISUALSTYLE
  5
D9
102
{ACAD_XDICTIONARY
360
131
102
}
102
{ACAD_REACTORS
330
C3
102
}
330
C3
100
AcDbVisualStyle
  2
JitterOff
 70
    20
177
     2
291
     1
 71
     2
176
     0
 72
     2
176
     0
 73
     0
176
     0
 90
        0
176
     0
 40
0.6
176
     0
 41
30.0
176
     0
 63
     7
421
 16777215
176
     0
 74
     1
176
     0
 91
        4
176
     0
 64
     7
176
     0
 65
   257
176
     0
 75
     1
176
     0
175
     1
176
     0
 42
1.0
176
     0
 92
       10
176
     2
 66
     7
176
     0
 43
1.0
176
     0
 76
     1
176
     0
 77
     6
176
     0
 78
     2
176
     0
 67
     7
176
     0
 79
     5
176
     0
170
     0
176
     0
171
     0
176
     0
290
     0
176
     0
 93
        1
176
     0
 44
0.0
176
     0
173
     0
176
     0
1001
ACAD
1000
AcDbSavedByObjectVersion
1070
     0
  0
VISUALSTYLE
  5
D1
102
{ACAD_XDICTIONARY
360
121
102
}
102
{ACAD_REACTORS
330
C3
102
}
330
C3
100
AcDbVisualStyle
  2
Linepattern
 70
    14
177
     2
291
     1
 71
     2
176
     1
 72
     2
176
     1
 73
     0
176
     1
 90
        0
176
     1
 40
0.6
176
     1
 41
30.0
176
     1
 63
     7
421
 16777215
176
     1
 74
     1
176
     1
 91
        4
176
     1
 64
     7
176
     1
 65
   257
176
     1
 75
     7
176
     1
175
     7
176
     1
 42
1.0
176
     1
 92
        8
176
     1
 66
     7
176
     1
 43
1.0
176
     1
 76
     1
176
     1
 77
     6
176
     1
 78
     2
176
     1
 67
     7
176
     1
 79
     5
176
     1
170
     0
176
     1
171
     0
176
     1
290
     0
176
     1
 93
        1
176
     1
 44
0.0
176
     1
173
     0
176
     1
1001
ACAD
1000
AcDbSavedByObjectVersion
1070
     0
  0
VISUALSTYLE
  5
DA
102
{ACAD_XDICTIONARY
360
133
102
}
102
{ACAD_REACTORS
330
C3
102
}
330
C3
100
AcDbVisualStyle
  2
OverhangOff
 70
    21
177
     2
291
     1
 71
     2
176
     0
 72
     2
176
     0
 73
     0
176
     0
 90
        0
176
     0
 40
0.6
176
     0
 41
30.0
176
     0
 63
     7
421
 16777215
176
     0
 74
     1
176
     0
 91
        4
176
     0
 64
     7
176
     0
 65
   257
176
     0
 75
     1
176
     0
175
     1
176
     0
 42
1.0
176
     0
 92
        9
176
     2
 66
     7
176
     0
 43
1.0
176
     0
 76
     1
176
     0
 77
     6
176
     0
 78
     2
176
     0
 67
     7
176
     0
 79
     5
176
     0
170
     0
176
     0
171
     0
176
     0
290
     0
176
     0
 93
        1
176
     0
 44
0.0
176
     0
173
     0
176
     0
1001
ACAD
1000
AcDbSavedByObjectVersion
1070
     0
  0
VISUALSTYLE
  5
CD
102
{ACAD_XDICTIONARY
360
119
102
}
102
{ACAD_REACTORS
330
C3
102
}
330
C3
100
AcDbVisualStyle
  2
Realistic
 70
     8
177
     2
291
     0
 71
     2
176
     1
 72
     3
176
     1
 73
     0
176
     1
 90
        2
176
     1
 40
0.6
176
     1
 41
30.0
176
     1
 63
     7
421
 16777215
176
     1
 74
     0
176
     1
 91
        0
176
     1
 64
     7
176
     1
 65
   257
176
     1
 75
     1
176
     1
175
     1
176
     1
 42
1.0
176
     1
 92
        8
176
     1
 66
   257
176
     1
 43
1.0
176
     1
 76
     1
176
     1
 77
     6
176
     1
 78
     2
176
     1
 67
     7
176
     1
 79
     3
176
     1
170
     0
176
     1
171
     0
176
     1
290
     0
176
     1
 93
       13
176
     1
 44
0.0
176
     1
173
     0
176
     1
1001
ACAD
1000
AcDbSavedByObjectVersion
1070
     0
  0
VISUALSTYLE
  5
D8
102
{ACAD_XDICTIONARY
360
12F
102
}
102
{ACAD_REACTORS
330
C3
102
}
330
C3
100
AcDbVisualStyle
  2
Shaded
 70
    27
177
     2
291
     0
 71
     2
176
     1
 72
     2
176
     1
 73
     1
176
     1
 90
        2
176
     1
 40
0.6
176
     1
 41
30.0
176
     1
 63
     7
421
 16777215
176
     1
 74
     0
176
     1
 91
        4
176
     1
 64
     7
176
     1
 65
   257
176
     1
 75
     1
176
     1
175
     1
176
     1
 42
1.0
176
     1
 92
        8
176
     1
 66
   257
176
     1
 43
1.0
176
     1
 76
     1
176
     1
 77
     6
176
     1
 78
     2
176
     1
 67
     8
425
  7895160
176
     1
 79
     3
176
     1
170
     0
176
     1
171
     0
176
     1
290
     0
176
     1
 93
        5
176
     1
 44
0.0
176
     1
173
     0
176
     1
1001
ACAD
1000
AcDbSavedByObjectVersion
1070
     0
  0
VISUALSTYLE
  5
D7
102
{ACAD_XDICTIONARY
360
12D
102
}
102
{ACAD_REACTORS
330
C3
102
}
330
C3
100
AcDbVisualStyle
  2
Shaded with edges
 70
    26
177
     2
291
     0
 71
     2
176
     1
 72
     2
176
     1
 73
     1
176
     1
 90
        2
176
     1
 40
0.6
176
     1
 41
30.0
176
     1
 63
     7
421
 16777215
176
     1
 74
     1
176
     1
 91
       10
176
     1
 64
     7
176
     1
 65
   257
176
     1
 75
     2
176
     1
175
     1
176
     1
 42
1.0
176
     1
 92
        8
176
     1
 66
   257
176
     1
 43
1.0
176
     1
 76
     1
176
     1
 77
     6
176
     1
 78
     2
176
     1
 67
     7
176
     1
 79
     3
176
     1
170
     0
176
     1
171
     0
176
     1
290
     0
176
     1
 93
        5
176
     1
 44
0.0
176
     1
173
     0
176
     1
1001
ACAD
1000
AcDbSavedByObjectVersion
1070
     0
  0
VISUALSTYLE
  5
D4
102
{ACAD_XDICTIONARY
360
127
102
}
102
{ACAD_REACTORS
330
C3
102
}
330
C3
100
AcDbVisualStyle
  2
Shades of Gray
 70
    23
177
     2
291
     0
 71
     2
176
     1
 72
     2
176
     1
 73
     3
176
     1
 90
        0
176
     1
 40
0.6
176
     1
 41
30.0
176
     1
 63
     7
421
 16777215
176
     1
 74
     2
176
     1
 91
        2
176
     1
 64
     7
176
     1
 65
     7
176
     1
 75
     1
176
     1
175
     1
176
     1
 42
40.0
176
     1
 92
        8
176
     1
 66
     7
176
     1
 43
1.0
176
     1
 76
     1
176
     1
 77
     6
176
     1
 78
     2
176
     1
 67
     7
176
     1
 79
     3
176
     1
170
     0
176
     1
171
     0
176
     1
290
     0
176
     1
 93
        1
176
     1
 44
0.0
176
     1
173
     0
176
     1
1001
ACAD
1000
AcDbSavedByObjectVersion
1070
     0
  0
VISUALSTYLE
  5
D5
102
{ACAD_XDICTIONARY
360
129
102
}
102
{ACAD_REACTORS
330
C3
102
}
330
C3
100
AcDbVisualStyle
  2
Sketchy
 70
    24
177
     2
291
     0
 71
     1
176
     1
 72
     2
176
     1
 73
     2
176
     1
 90
        0
176
     1
 40
0.6
176
     1
 41
30.0
176
     1
 63
     7
421
 16777215
176
     1
 74
     2
176
     1
 91
        2
176
     1
 64
     7
176
     1
 65
     7
176
     1
 75
     1
176
     1
175
     1
176
     1
 42
40.0
176
     1
 92
       11
176
     1
 66
     7
176
     1
 43
1.0
176
     1
 76
     1
176
     1
 77
     6
176
     1
 78
     2
176
     1
 67
     7
176
     1
 79
     6
176
     1
170
     0
176
     1
171
     0
176
     1
290
     0
176
     1
 93
        1
176
     1
 44
0.0
176
     1
173
     0
176
     1
1001
ACAD
1000
AcDbSavedByObjectVersion
1070
     0
  0
VISUALSTYLE
  5
D0
102
{ACAD_XDICTIONARY
360
11F
102
}
102
{ACAD_REACTORS
330
C3
102
}
330
C3
100
AcDbVisualStyle
  2
Thicken
 70
    13
177
     2
291
     1
 71
     2
176
     1
 72
     2
176
     1
 73
     0
176
     1
 90
        0
176
     1
 40
0.6
176
     1
 41
30.0
176
     1
 63
     7
421
 16777215
176
     1
 74
     1
176
     1
 91
        4
176
     1
 64
     7
176
     1
 65
   257
176
     1
 75
     1
176
     1
175
     1
176
     1
 42
1.0
176
     1
 92
       12
176
     1
 66
     7
176
     1
 43
1.0
176
     1
 76
     1
176
     1
 77
     6
176
     1
 78
     2
176
     1
 67
     7
176
     1
 79
     5
176
     1
170
     0
176
     1
171
     0
176
     1
290
     0
176
     1
 93
        1
176
     1
 44
0.0
176
     1
173
     0
176
     1
1001
ACAD
1000
AcDbSavedByObjectVersion
1070
     0
  0
VISUALSTYLE
  5
CA
102
{ACAD_XDICTIONARY
360
113
102
}
102
{ACAD_REACTORS
330
C3
102
}
330
C3
100
AcDbVisualStyle
  2
Wireframe
 70
     5
177
     2
291
     0
 71
     0
176
     1
 72
     2
176
     1
 73
     0
176
     1
 90
        0
176
     1
 40
0.6
176
     1
 41
30.0
176
     1
 63
     7
421
 16777215
176
     1
 74
     1
176
     1
 91
        4
176
     1
 64
     7
176
     1
 65
   257
176
     1
 75
     1
176
     1
175
     1
176
     1
 42
1.0
176
     1
 92
        0
176
     1
 66
   257
176
     1
 43
1.0
176
     1
 76
     1
176
     1
 77
     6
176
     1
 78
     2
176
     1
 67
     7
176
     1
 79
     3
176
     1
170
     0
176
     1
171
     0
176
     1
290
     0
176
     1
 93
        1
176
     1
 44
0.0
176
     1
173
     0
176
     1
1001
ACAD
1000
AcDbSavedByObjectVersion
1070
     0
  0
VISUALSTYLE
  5
D6
102
{ACAD_XDICTIONARY
360
12B
102
}
102
{ACAD_REACTORS
330
C3
102
}
330
C3
100
AcDbVisualStyle
  2
X-Ray
 70
    25
177
     2
291
     0
 71
     2
176
     1
 72
     2
176
     1
 73
     1
176
     1
 90
        1
176
     1
 40
0.5
176
     1
 41
30.0
176
     1
 63
     7
421
 16777215
176
     1
 74
     1
176
     1
 91
        0
176
     1
 64
     7
176
     1
 65
   257
176
     1
 75
     1
176
     1
175
     1
176
     1
 42
1.0
176
     1
 92
        8
176
     1
 66
     7
176
     1
 43
1.0
176
     1
 76
     1
176
     1
 77
     6
176
     1
 78
     2
176
     1
 67
     7
176
     1
 79
     3
176
     1
170
     0
176
     1
171
     0
176
     1
290
     0
176
     1
 93
       13
176
     1
 44
0.0
176
     1
173
     0
176
     1
1001
ACAD
1000
AcDbSavedByObjectVersion
1070
     0
  0
DICTIONARYVAR
  5
100
102
{ACAD_REACTORS
330
FA
102
}
330
FA
100
DictionaryVariables
280
     0
  1
1:1
  0
DICTIONARYVAR
  5
FC
102
{ACAD_REACTORS
330
FA
102
}
330
FA
100
DictionaryVariables
280
     0
  1
STANDARD
  0
DICTIONARYVAR
  5
FB
102
{ACAD_REACTORS
330
FA
102
}
330
FA
100
DictionaryVariables
280
     0
  1
STANDARD
  0
DICTIONARYVAR
  5
FD
102
{ACAD_REACTORS
330
FA
102
}
330
FA
100
DictionaryVariables
280
     0
  1
Imperial24
  0
DICTIONARYVAR
  5
FE
102
{ACAD_REACTORS
330
FA
102
}
330
FA
100
DictionaryVariables
280
     0
  1
Imperial24
  0
DICTIONARYVAR
  5
102
102
{ACAD_REACTORS
330
FA
102
}
330
FA
100
DictionaryVariables
280
     0
  1
1
  0
DICTIONARYVAR
  5
103
102
{ACAD_REACTORS
330
FA
102
}
330
FA
100
DictionaryVariables
280
     0
  1
15
  0
DICTIONARYVAR
  5
101
102
{ACAD_REACTORS
330
FA
102
}
330
FA
100
DictionaryVariables
280
     0
  1
0
  0
DICTIONARYVAR
  5
FF
102
{ACAD_REACTORS
330
FA
102
}
330
FA
100
DictionaryVariables
280
     0
  1
0
  0
DICTIONARY
  5
13B
330
F6
100
AcDbDictionary
280
     1
281
     1
  3
ACAD_XREC_ROUNDTRIP
360
13C
  0
DICTIONARY
  5
B4
330
B3
100
AcDbDictionary
280
     1
281
     1
  3
BUMPTILE
360
B6
  3
DIFFUSETILE
360
B5
  3
OPACITYTILE
360
B9
  3
REFLECTIONTILE
360
B8
  3
REFRACTIONTILE
360
BA
  3
SPECULARTILE
360
B7
  0
DICTIONARY
  5
AC
330
AB
100
AcDbDictionary
280
     1
281
     1
  3
BUMPTILE
360
AE
  3
DIFFUSETILE
360
AD
  3
OPACITYTILE
360
B1
  3
REFLECTIONTILE
360
B0
  3
REFRACTIONTILE
360
B2
  3
SPECULARTILE
360
AF
  0
DICTIONARY
  5
BC
330
BB
100
AcDbDictionary
280
     1
281
     1
  3
BUMPTILE
360
BE
  3
DIFFUSETILE
360
BD
  3
OPACITYTILE
360
C1
  3
REFLECTIONTILE
360
C0
  3
REFRACTIONTILE
360
C2
  3
SPECULARTILE
360
BF
  0
DICTIONARY
  5
137
330
F2
100
AcDbDictionary
280
     1
281
     1
  3
ACAD_XREC_ROUNDTRIP
360
138
  0
DICTIONARY
  5
139
330
F4
100
AcDbDictionary
280
     1
281
     1
  3
ACAD_XREC_ROUNDTRIP
360
13A
  0
DICTIONARY
  5
104
330
DE
100
AcDbDictionary
280
     1
281
     1
  3
ACAD_ROUNDTRIP_2008_TABLESTYLE_CELLSTYLEMAP
360
105
  0
DICTIONARY
  5
111
330
C9
100
AcDbDictionary
280
     1
281
     1
  3
ACAD_XREC_ROUNDTRIP
360
112
  0
DICTIONARY
  5
10F
330
C8
100
AcDbDictionary
280
     1
281
     1
  3
ACAD_XREC_ROUNDTRIP
360
110
  0
DICTIONARY
  5
11D
330
CF
100
AcDbDictionary
280
     1
281
     1
  3
ACAD_XREC_ROUNDTRIP
360
11E
  0
DICTIONARY
  5
125
330
D3
100
AcDbDictionary
280
     1
281
     1
  3
ACAD_XREC_ROUNDTRIP
360
126
  0
DICTIONARY
  5
117
330
CC
100
AcDbDictionary
280
     1
281
     1
  3
ACAD_XREC_ROUNDTRIP
360
118
  0
DICTIONARY
  5
11B
330
CE
100
AcDbDictionary
280
     1
281
     1
  3
ACAD_XREC_ROUNDTRIP
360
11C
  0
DICTIONARY
  5
135
330
DB
100
AcDbDictionary
280
     1
281
     1
  3
ACAD_XREC_ROUNDTRIP
360
136
  0
DICTIONARY
  5
123
330
D2
100
AcDbDictionary
280
     1
281
     1
  3
ACAD_XREC_ROUNDTRIP
360
124
  0
DICTIONARY
  5
107
330
C4
100
AcDbDictionary
280
     1
281
     1
  3
ACAD_XREC_ROUNDTRIP
360
108
  0
DICTIONARY
  5
109
330
C5
100
AcDbDictionary
280
     1
281
     1
  3
ACAD_XREC_ROUNDTRIP
360
10A
  0
DICTIONARY
  5
10B
330
C6
100
AcDbDictionary
280
     1
281
     1
  3
ACAD_XREC_ROUNDTRIP
360
10C
  0
DICTIONARY
  5
10D
330
C7
100
AcDbDictionary
280
     1
281
     1
  3
ACAD_XREC_ROUNDTRIP
360
10E
  0
DICTIONARY
  5
115
330
CB
100
AcDbDictionary
280
     1
281
     1
  3
ACAD_XREC_ROUNDTRIP
360
116
  0
DICTIONARY
  5
131
330
D9
100
AcDbDictionary
280
     1
281
     1
  3
ACAD_XREC_ROUNDTRIP
360
132
  0
DICTIONARY
  5
121
330
D1
100
AcDbDictionary
280
     1
281
     1
  3
ACAD_XREC_ROUNDTRIP
360
122
  0
DICTIONARY
  5
133
330
DA
100
AcDbDictionary
280
     1
281
     1
  3
ACAD_XREC_ROUNDTRIP
360
134
  0
DICTIONARY
  5
119
330
CD
100
AcDbDictionary
280
     1
281
     1
  3
ACAD_XREC_ROUNDTRIP
360
11A
  0
DICTIONARY
  5
12F
330
D8
100
AcDbDictionary
280
     1
281
     1
  3
ACAD_XREC_ROUNDTRIP
360
130
  0
DICTIONARY
  5
12D
330
D7
100
AcDbDictionary
280
     1
281
     1
  3
ACAD_XREC_ROUNDTRIP
360
12E
  0
DICTIONARY
  5
127
330
D4
100
AcDbDictionary
280
     1
281
     1
  3
ACAD_XREC_ROUNDTRIP
360
128
  0
DICTIONARY
  5
129
330
D5
100
AcDbDictionary
280
     1
281
     1
  3
ACAD_XREC_ROUNDTRIP
360
12A
  0
DICTIONARY
  5
11F
330
D0
100
AcDbDictionary
280
     1
281
     1
  3
ACAD_XREC_ROUNDTRIP
360
120
  0
DICTIONARY
  5
113
330
CA
100
AcDbDictionary
280
     1
281
     1
  3
ACAD_XREC_ROUNDTRIP
360
114
  0
DICTIONARY
  5
12B
330
D6
100
AcDbDictionary
280
     1
281
     1
  3
ACAD_XREC_ROUNDTRIP
360
12C
  0
XRECORD
  5
13C
102
{ACAD_REACTORS
330
13B
102
}
330
13B
100
AcDbXrecord
280
     1
102
DISPLAYNAME
  1
Imperial24
102
FLAGS
 90
        0
  0
XRECORD
  5
B6
102
{ACAD_REACTORS
330
B4
102
}
330
B4
100
AcDbXrecord
280
     1
270
     1
271
     1
  0
XRECORD
  5
B5
102
{ACAD_REACTORS
330
B4
102
}
330
B4
100
AcDbXrecord
280
     1
270
     1
271
     1
  0
XRECORD
  5
B9
102
{ACAD_REACTORS
330
B4
102
}
330
B4
100
AcDbXrecord
280
     1
270
     1
271
     1
  0
XRECORD
  5
B8
102
{ACAD_REACTORS
330
B4
102
}
330
B4
100
AcDbXrecord
280
     1
270
     1
271
     1
  0
XRECORD
  5
BA
102
{ACAD_REACTORS
330
B4
102
}
330
B4
100
AcDbXrecord
280
     1
270
     1
271
     1
  0
XRECORD
  5
B7
102
{ACAD_REACTORS
330
B4
102
}
330
B4
100
AcDbXrecord
280
     1
270
     1
271
     1
  0
XRECORD
  5
AE
102
{ACAD_REACTORS
330
AC
102
}
330
AC
100
AcDbXrecord
280
     1
270
     1
271
     1
  0
XRECORD
  5
AD
102
{ACAD_REACTORS
330
AC
102
}
330
AC
100
AcDbXrecord
280
     1
270
     1
271
     1
  0
XRECORD
  5
B1
102
{ACAD_REACTORS
330
AC
102
}
330
AC
100
AcDbXrecord
280
     1
270
     1
271
     1
  0
XRECORD
  5
B0
102
{ACAD_REACTORS
330
AC
102
}
330
AC
100
AcDbXrecord
280
     1
270
     1
271
     1
  0
XRECORD
  5
B2
102
{ACAD_REACTORS
330
AC
102
}
330
AC
100
AcDbXrecord
280
     1
270
     1
271
     1
  0
XRECORD
  5
AF
102
{ACAD_REACTORS
330
AC
102
}
330
AC
100
AcDbXrecord
280
     1
270
     1
271
     1
  0
XRECORD
  5
BE
102
{ACAD_REACTORS
330
BC
102
}
330
BC
100
AcDbXrecord
280
     1
270
     1
271
     1
  0
XRECORD
  5
BD
102
{ACAD_REACTORS
330
BC
102
}
330
BC
100
AcDbXrecord
280
     1
270
     1
271
     1
  0
XRECORD
  5
C1
102
{ACAD_REACTORS
330
BC
102
}
330
BC
100
AcDbXrecord
280
     1
270
     1
271
     1
  0
XRECORD
  5
C0
102
{ACAD_REACTORS
330
BC
102
}
330
BC
100
AcDbXrecord
280
     1
270
     1
271
     1
  0
XRECORD
  5
C2
102
{ACAD_REACTORS
330
BC
102
}
330
BC
100
AcDbXrecord
280
     1
270
     1
271
     1
  0
XRECORD
  5
BF
102
{ACAD_REACTORS
330
BC
102
}
330
BC
100
AcDbXrecord
280
     1
270
     1
271
     1
  0
XRECORD
  5
138
102
{ACAD_REACTORS
330
137
102
}
330
137
100
AcDbXrecord
280
     1
102
ACAD_ROUNDTRIP_2012_MLEADER_STYLE
298
     1
  0
XRECORD
  5
13A
102
{ACAD_REACTORS
330
139
102
}
330
139
100
AcDbXrecord
280
     1
102
DISPLAYNAME
  1
Imperial24
102
FLAGS
 90
        0
  0
CELLSTYLEMAP
  5
105
102
{ACAD_REACTORS
330
104
102
}
330
104
100
AcDbCellStyleMap
 90
        3
300
CELLSTYLE
  1
TABLEFORMAT_BEGIN
 90
        5
170
     1
 91
        0
 92
    32768
 62
   257
 93
        1
300
CONTENTFORMAT
  1
CONTENTFORMAT_BEGIN
 90
        0
 91
        0
 92
      512
 93
        0
300

 40
0.0
140
1.0
 94
        5
 62
     0
340
11
144
0.25
309
CONTENTFORMAT_END
171
     0
 94
        0
309
TABLEFORMAT_END
  1
CELLSTYLE_BEGIN
 90
        1
 91
        1
300
_TITLE
309
CELLSTYLE_END
300
CELLSTYLE
  1
TABLEFORMAT_BEGIN
 90
        5
170
     1
 91
        0
 92
        0
 62
   257
 93
        1
300
CONTENTFORMAT
  1
CONTENTFORMAT_BEGIN
 90
        0
 91
        0
 92
      512
 93
        0
300

 40
0.0
140
1.0
 94
        5
 62
     0
340
11
144
0.18
309
CONTENTFORMAT_END
171
     0
 94
        0
309
TABLEFORMAT_END
  1
CELLSTYLE_BEGIN
 90
        2
 91
        1
300
_HEADER
309
CELLSTYLE_END
300
CELLSTYLE
  1
TABLEFORMAT_BEGIN
 90
        5
170
     1
 91
        0
 92
        0
 62
   257
 93
        1
300
CONTENTFORMAT
  1
CONTENTFORMAT_BEGIN
 90
        0
 91
        0
 92
      512
 93
        0
300

 40
0.0
140
1.0
 94
        2
 62
     0
340
11
144
0.18
309
CONTENTFORMAT_END
171
     0
 94
        0
309
TABLEFORMAT_END
  1
CELLSTYLE_BEGIN
 90
        3
 91
        2
300
_DATA
309
CELLSTYLE_END
  0
XRECORD
  5
112
102
{ACAD_REACTORS
330
111
102
}
330
111
100
AcDbXrecord
280
     1
102
RTVSPost2010Prop28
280
     1
102
RTVSPost2010PropOp28
 70
     1
102
RTVSPost2010Prop29
280
     1
102
RTVSPost2010PropOp29
 70
     1
102
RTVSPost2010Prop30
280
     0
102
RTVSPost2010PropOp30
 70
     1
102
RTVSPost2010Prop31
280
     0
102
RTVSPost2010PropOp31
 70
     1
102
RTVSPost2010Prop32
280
     0
102
RTVSPost2010PropOp32
 70
     1
102
RTVSPost2010Prop33
280
     0
102
RTVSPost2010PropOp33
 70
     1
102
RTVSPost2010Prop34
280
     0
102
RTVSPost2010PropOp34
 70
     1
102
RTVSPost2010Prop35
280
     0
102
RTVSPost2010PropOp35
 70
     1
102
RTVSPost2010Prop36
280
     0
102
RTVSPost2010PropOp36
 70
     1
102
RTVSPost2010Prop37
 90
       50
102
RTVSPost2010PropOp37
 70
     1
102
RTVSPost2010Prop38
140
0.0
102
RTVSPost2010PropOp38
 70
     1
102
RTVSPost2010Prop39
140
1.0
102
RTVSPost2010PropOp39
 70
     1
102
RTVSPost2010Prop40
 90
        0
102
RTVSPost2010PropOp40
 70
     1
102
RTVSPost2010Prop41ColorIndex
 90
       18
102
RTVSPost2010Prop41ColorRGB
 90
        0
102
RTVSPost2010PropOp41
 70
     1
102
RTVSPost2010Prop42
 90
       50
102
RTVSPost2010PropOp42
 70
     1
102
RTVSPost2010Prop43
 90
        3
102
RTVSPost2010PropOp43
 70
     1
102
RTVSPost2010Prop44ColorIndex
 90
        5
102
RTVSPost2010Prop44ColorRGB
 90
      255
102
RTVSPost2010PropOp44
 70
     1
102
RTVSPost2010Prop45
280
     0
102
RTVSPost2010PropOp45
 70
     1
102
RTVSPost2010Prop46
 90
       50
102
RTVSPost2010PropOp46
 70
     1
102
RTVSPost2010Prop47
 90
       50
102
RTVSPost2010PropOp47
 70
     1
102
RTVSPost2010Prop48
 90
       50
102
RTVSPost2010PropOp48
 70
     1
102
RTVSPost2010Prop49
280
     0
102
RTVSPost2010PropOp49
 70
     1
102
RTVSPost2010Prop50
 90
       50
102
RTVSPost2010PropOp50
 70
     1
102
RTVSPost2010Prop51ColorIndex
 90
      256
102
RTVSPost2010Prop51ColorRGB
 90
-16777216
102
RTVSPost2010PropOp51
 70
     0
102
RTVSPost2010Prop52
140
1.0
102
RTVSPost2010PropOp52
 70
     0
102
RTVSPost2010Prop53
 90
        2
102
RTVSPost2010PropOp53
 70
     1
102
RTVSPost2010Prop54
  1
strokes_ogs.tif
102
RTVSPost2010PropOp54
 70
     1
102
RTVSPost2010Prop55
280
     0
102
RTVSPost2010PropOp55
 70
     1
102
RTVSPost2010Prop56
140
1.0
102
RTVSPost2010PropOp56
 70
     1
102
RTVSPost2010Prop57
140
1.0
102
RTVSPost2010PropOp57
 70
     1
  0
XRECORD
  5
110
102
{ACAD_REACTORS
330
10F
102
}
330
10F
100
AcDbXrecord
280
     1
102
RTVSPost2010Prop28
280
     0
102
RTVSPost2010PropOp28
 70
     1
102
RTVSPost2010Prop29
280
     1
102
RTVSPost2010PropOp29
 70
     1
102
RTVSPost2010Prop30
280
     1
102
RTVSPost2010PropOp30
 70
     1
102
RTVSPost2010Prop31
280
     0
102
RTVSPost2010PropOp31
 70
     1
102
RTVSPost2010Prop32
280
     0
102
RTVSPost2010PropOp32
 70
     1
102
RTVSPost2010Prop33
280
     0
102
RTVSPost2010PropOp33
 70
     1
102
RTVSPost2010Prop34
280
     0
102
RTVSPost2010PropOp34
 70
     1
102
RTVSPost2010Prop35
280
     0
102
RTVSPost2010PropOp35
 70
     1
102
RTVSPost2010Prop36
280
     0
102
RTVSPost2010PropOp36
 70
     1
102
RTVSPost2010Prop37
 90
       50
102
RTVSPost2010PropOp37
 70
     1
102
RTVSPost2010Prop38
140
0.0
102
RTVSPost2010PropOp38
 70
     1
102
RTVSPost2010Prop39
140
1.0
102
RTVSPost2010PropOp39
 70
     1
102
RTVSPost2010Prop40
 90
        0
102
RTVSPost2010PropOp40
 70
     1
102
RTVSPost2010Prop41ColorIndex
 90
       18
102
RTVSPost2010Prop41ColorRGB
 90
        0
102
RTVSPost2010PropOp41
 70
     1
102
RTVSPost2010Prop42
 90
       50
102
RTVSPost2010PropOp42
 70
     1
102
RTVSPost2010Prop43
 90
        3
102
RTVSPost2010PropOp43
 70
     1
102
RTVSPost2010Prop44ColorIndex
 90
        5
102
RTVSPost2010Prop44ColorRGB
 90
      255
102
RTVSPost2010PropOp44
 70
     1
102
RTVSPost2010Prop45
280
     0
102
RTVSPost2010PropOp45
 70
     1
102
RTVSPost2010Prop46
 90
       50
102
RTVSPost2010PropOp46
 70
     1
102
RTVSPost2010Prop47
 90
       50
102
RTVSPost2010PropOp47
 70
     1
102
RTVSPost2010Prop48
 90
       50
102
RTVSPost2010PropOp48
 70
     1
102
RTVSPost2010Prop49
280
     0
102
RTVSPost2010PropOp49
 70
     1
102
RTVSPost2010Prop50
 90
       50
102
RTVSPost2010PropOp50
 70
     1
102
RTVSPost2010Prop51ColorIndex
 90
      256
102
RTVSPost2010Prop51ColorRGB
 90
-16777216
102
RTVSPost2010PropOp51
 70
     0
102
RTVSPost2010Prop52
140
1.0
102
RTVSPost2010PropOp52
 70
     0
102
RTVSPost2010Prop53
 90
        2
102
RTVSPost2010PropOp53
 70
     1
102
RTVSPost2010Prop54
  1
strokes_ogs.tif
102
RTVSPost2010PropOp54
 70
     1
102
RTVSPost2010Prop55
280
     0
102
RTVSPost2010PropOp55
 70
     1
102
RTVSPost2010Prop56
140
1.0
102
RTVSPost2010PropOp56
 70
     1
102
RTVSPost2010Prop57
140
1.0
102
RTVSPost2010PropOp57
 70
     1
  0
XRECORD
  5
11E
102
{ACAD_REACTORS
330
11D
102
}
330
11D
100
AcDbXrecord
280
     1
102
RTVSPost2010Prop28
280
     0
102
RTVSPost2010PropOp28
 70
     1
102
RTVSPost2010Prop29
280
     1
102
RTVSPost2010PropOp29
 70
     1
102
RTVSPost2010Prop30
280
     1
102
RTVSPost2010PropOp30
 70
     1
102
RTVSPost2010Prop31
280
     0
102
RTVSPost2010PropOp31
 70
     1
102
RTVSPost2010Prop32
280
     0
102
RTVSPost2010PropOp32
 70
     1
102
RTVSPost2010Prop33
280
     0
102
RTVSPost2010PropOp33
 70
     1
102
RTVSPost2010Prop34
280
     0
102
RTVSPost2010PropOp34
 70
     1
102
RTVSPost2010Prop35
280
     0
102
RTVSPost2010PropOp35
 70
     1
102
RTVSPost2010Prop36
280
     0
102
RTVSPost2010PropOp36
 70
     1
102
RTVSPost2010Prop37
 90
       50
102
RTVSPost2010PropOp37
 70
     1
102
RTVSPost2010Prop38
140
0.0
102
RTVSPost2010PropOp38
 70
     1
102
RTVSPost2010Prop39
140
1.0
102
RTVSPost2010PropOp39
 70
     1
102
RTVSPost2010Prop40
 90
        0
102
RTVSPost2010PropOp40
 70
     1
102
RTVSPost2010Prop41ColorIndex
 90
       18
102
RTVSPost2010Prop41ColorRGB
 90
        0
102
RTVSPost2010PropOp41
 70
     1
102
RTVSPost2010Prop42
 90
       50
102
RTVSPost2010PropOp42
 70
     1
102
RTVSPost2010Prop43
 90
        3
102
RTVSPost2010PropOp43
 70
     1
102
RTVSPost2010Prop44ColorIndex
 90
        5
102
RTVSPost2010Prop44ColorRGB
 90
      255
102
RTVSPost2010PropOp44
 70
     1
102
RTVSPost2010Prop45
280
     0
102
RTVSPost2010PropOp45
 70
     1
102
RTVSPost2010Prop46
 90
       50
102
RTVSPost2010PropOp46
 70
     1
102
RTVSPost2010Prop47
 90
       50
102
RTVSPost2010PropOp47
 70
     1
102
RTVSPost2010Prop48
 90
       50
102
RTVSPost2010PropOp48
 70
     1
102
RTVSPost2010Prop49
280
     0
102
RTVSPost2010PropOp49
 70
     1
102
RTVSPost2010Prop50
 90
       50
102
RTVSPost2010PropOp50
 70
     1
102
RTVSPost2010Prop51ColorIndex
 90
      256
102
RTVSPost2010Prop51ColorRGB
 90
-16777216
102
RTVSPost2010PropOp51
 70
     0
102
RTVSPost2010Prop52
140
1.0
102
RTVSPost2010PropOp52
 70
     0
102
RTVSPost2010Prop53
 90
        2
102
RTVSPost2010PropOp53
 70
     1
102
RTVSPost2010Prop54
  1
strokes_ogs.tif
102
RTVSPost2010PropOp54
 70
     1
102
RTVSPost2010Prop55
280
     0
102
RTVSPost2010PropOp55
 70
     1
102
RTVSPost2010Prop56
140
1.0
102
RTVSPost2010PropOp56
 70
     1
102
RTVSPost2010Prop57
140
1.0
102
RTVSPost2010PropOp57
 70
     1
  0
XRECORD
  5
126
102
{ACAD_REACTORS
330
125
102
}
330
125
100
AcDbXrecord
280
     1
102
RTVSPost2010Prop28
280
     0
102
RTVSPost2010PropOp28
 70
     1
102
RTVSPost2010Prop29
280
     1
102
RTVSPost2010PropOp29
 70
     1
102
RTVSPost2010Prop30
280
     1
102
RTVSPost2010PropOp30
 70
     1
102
RTVSPost2010Prop31
280
     0
102
RTVSPost2010PropOp31
 70
     1
102
RTVSPost2010Prop32
280
     0
102
RTVSPost2010PropOp32
 70
     1
102
RTVSPost2010Prop33
280
     0
102
RTVSPost2010PropOp33
 70
     1
102
RTVSPost2010Prop34
280
     0
102
RTVSPost2010PropOp34
 70
     1
102
RTVSPost2010Prop35
280
     0
102
RTVSPost2010PropOp35
 70
     1
102
RTVSPost2010Prop36
280
     0
102
RTVSPost2010PropOp36
 70
     1
102
RTVSPost2010Prop37
 90
       50
102
RTVSPost2010PropOp37
 70
     1
102
RTVSPost2010Prop38
140
0.0
102
RTVSPost2010PropOp38
 70
     1
102
RTVSPost2010Prop39
140
1.0
102
RTVSPost2010PropOp39
 70
     1
102
RTVSPost2010Prop40
 90
        0
102
RTVSPost2010PropOp40
 70
     1
102
RTVSPost2010Prop41ColorIndex
 90
       18
102
RTVSPost2010Prop41ColorRGB
 90
        0
102
RTVSPost2010PropOp41
 70
     1
102
RTVSPost2010Prop42
 90
       50
102
RTVSPost2010PropOp42
 70
     1
102
RTVSPost2010Prop43
 90
        3
102
RTVSPost2010PropOp43
 70
     1
102
RTVSPost2010Prop44ColorIndex
 90
        5
102
RTVSPost2010Prop44ColorRGB
 90
      255
102
RTVSPost2010PropOp44
 70
     1
102
RTVSPost2010Prop45
280
     0
102
RTVSPost2010PropOp45
 70
     1
102
RTVSPost2010Prop46
 90
       50
102
RTVSPost2010PropOp46
 70
     1
102
RTVSPost2010Prop47
 90
       50
102
RTVSPost2010PropOp47
 70
     1
102
RTVSPost2010Prop48
 90
       50
102
RTVSPost2010PropOp48
 70
     1
102
RTVSPost2010Prop49
280
     0
102
RTVSPost2010PropOp49
 70
     1
102
RTVSPost2010Prop50
 90
       50
102
RTVSPost2010PropOp50
 70
     1
102
RTVSPost2010Prop51ColorIndex
 90
      256
102
RTVSPost2010Prop51ColorRGB
 90
-16777216
102
RTVSPost2010PropOp51
 70
     0
102
RTVSPost2010Prop52
140
1.0
102
RTVSPost2010PropOp52
 70
     0
102
RTVSPost2010Prop53
 90
        2
102
RTVSPost2010PropOp53
 70
     1
102
RTVSPost2010Prop54
  1
strokes_ogs.tif
102
RTVSPost2010PropOp54
 70
     1
102
RTVSPost2010Prop55
280
     0
102
RTVSPost2010PropOp55
 70
     1
102
RTVSPost2010Prop56
140
1.0
102
RTVSPost2010PropOp56
 70
     1
102
RTVSPost2010Prop57
140
1.0
102
RTVSPost2010PropOp57
 70
     1
  0
XRECORD
  5
118
102
{ACAD_REACTORS
330
117
102
}
330
117
100
AcDbXrecord
280
     1
102
RTVSPost2010Prop28
280
     0
102
RTVSPost2010PropOp28
 70
     1
102
RTVSPost2010Prop29
280
     1
102
RTVSPost2010PropOp29
 70
     1
102
RTVSPost2010Prop30
280
     1
102
RTVSPost2010PropOp30
 70
     1
102
RTVSPost2010Prop31
280
     0
102
RTVSPost2010PropOp31
 70
     1
102
RTVSPost2010Prop32
280
     0
102
RTVSPost2010PropOp32
 70
     1
102
RTVSPost2010Prop33
280
     0
102
RTVSPost2010PropOp33
 70
     1
102
RTVSPost2010Prop34
280
     0
102
RTVSPost2010PropOp34
 70
     1
102
RTVSPost2010Prop35
280
     0
102
RTVSPost2010PropOp35
 70
     1
102
RTVSPost2010Prop36
280
     0
102
RTVSPost2010PropOp36
 70
     1
102
RTVSPost2010Prop37
 90
       50
102
RTVSPost2010PropOp37
 70
     1
102
RTVSPost2010Prop38
140
0.0
102
RTVSPost2010PropOp38
 70
     1
102
RTVSPost2010Prop39
140
1.0
102
RTVSPost2010PropOp39
 70
     1
102
RTVSPost2010Prop40
 90
        0
102
RTVSPost2010PropOp40
 70
     1
102
RTVSPost2010Prop41ColorIndex
 90
       18
102
RTVSPost2010Prop41ColorRGB
 90
        0
102
RTVSPost2010PropOp41
 70
     1
102
RTVSPost2010Prop42
 90
       50
102
RTVSPost2010PropOp42
 70
     1
102
RTVSPost2010Prop43
 90
        3
102
RTVSPost2010PropOp43
 70
     1
102
RTVSPost2010Prop44ColorIndex
 90
        5
102
RTVSPost2010Prop44ColorRGB
 90
      255
102
RTVSPost2010PropOp44
 70
     1
102
RTVSPost2010Prop45
280
     0
102
RTVSPost2010PropOp45
 70
     1
102
RTVSPost2010Prop46
 90
       50
102
RTVSPost2010PropOp46
 70
     1
102
RTVSPost2010Prop47
 90
       50
102
RTVSPost2010PropOp47
 70
     1
102
RTVSPost2010Prop48
 90
       50
102
RTVSPost2010PropOp48
 70
     1
102
RTVSPost2010Prop49
280
     0
102
RTVSPost2010PropOp49
 70
     1
102
RTVSPost2010Prop50
 90
       50
102
RTVSPost2010PropOp50
 70
     1
102
RTVSPost2010Prop51ColorIndex
 90
      256
102
RTVSPost2010Prop51ColorRGB
 90
-16777216
102
RTVSPost2010PropOp51
 70
     0
102
RTVSPost2010Prop52
140
1.0
102
RTVSPost2010PropOp52
 70
     0
102
RTVSPost2010Prop53
 90
        2
102
RTVSPost2010PropOp53
 70
     1
102
RTVSPost2010Prop54
  1
strokes_ogs.tif
102
RTVSPost2010PropOp54
 70
     1
102
RTVSPost2010Prop55
280
     0
102
RTVSPost2010PropOp55
 70
     1
102
RTVSPost2010Prop56
140
1.0
102
RTVSPost2010PropOp56
 70
     1
102
RTVSPost2010Prop57
140
1.0
102
RTVSPost2010PropOp57
 70
     1
  0
XRECORD
  5
11C
102
{ACAD_REACTORS
330
11B
102
}
330
11B
100
AcDbXrecord
280
     1
102
RTVSPost2010Prop28
280
     0
102
RTVSPost2010PropOp28
 70
     1
102
RTVSPost2010Prop29
280
     1
102
RTVSPost2010PropOp29
 70
     1
102
RTVSPost2010Prop30
280
     1
102
RTVSPost2010PropOp30
 70
     1
102
RTVSPost2010Prop31
280
     0
102
RTVSPost2010PropOp31
 70
     1
102
RTVSPost2010Prop32
280
     0
102
RTVSPost2010PropOp32
 70
     1
102
RTVSPost2010Prop33
280
     0
102
RTVSPost2010PropOp33
 70
     1
102
RTVSPost2010Prop34
280
     0
102
RTVSPost2010PropOp34
 70
     1
102
RTVSPost2010Prop35
280
     0
102
RTVSPost2010PropOp35
 70
     1
102
RTVSPost2010Prop36
280
     0
102
RTVSPost2010PropOp36
 70
     1
102
RTVSPost2010Prop37
 90
       50
102
RTVSPost2010PropOp37
 70
     1
102
RTVSPost2010Prop38
140
0.0
102
RTVSPost2010PropOp38
 70
     1
102
RTVSPost2010Prop39
140
1.0
102
RTVSPost2010PropOp39
 70
     1
102
RTVSPost2010Prop40
 90
        0
102
RTVSPost2010PropOp40
 70
     1
102
RTVSPost2010Prop41ColorIndex
 90
       18
102
RTVSPost2010Prop41ColorRGB
 90
        0
102
RTVSPost2010PropOp41
 70
     1
102
RTVSPost2010Prop42
 90
       50
102
RTVSPost2010PropOp42
 70
     1
102
RTVSPost2010Prop43
 90
        3
102
RTVSPost2010PropOp43
 70
     1
102
RTVSPost2010Prop44ColorIndex
 90
        5
102
RTVSPost2010Prop44ColorRGB
 90
      255
102
RTVSPost2010PropOp44
 70
     1
102
RTVSPost2010Prop45
280
     0
102
RTVSPost2010PropOp45
 70
     1
102
RTVSPost2010Prop46
 90
       50
102
RTVSPost2010PropOp46
 70
     1
102
RTVSPost2010Prop47
 90
       50
102
RTVSPost2010PropOp47
 70
     1
102
RTVSPost2010Prop48
 90
       50
102
RTVSPost2010PropOp48
 70
     1
102
RTVSPost2010Prop49
280
     0
102
RTVSPost2010PropOp49
 70
     1
102
RTVSPost2010Prop50
 90
       50
102
RTVSPost2010PropOp50
 70
     1
102
RTVSPost2010Prop51ColorIndex
 90
      256
102
RTVSPost2010Prop51ColorRGB
 90
-16777216
102
RTVSPost2010PropOp51
 70
     0
102
RTVSPost2010Prop52
140
1.0
102
RTVSPost2010PropOp52
 70
     0
102
RTVSPost2010Prop53
 90
        2
102
RTVSPost2010PropOp53
 70
     1
102
RTVSPost2010Prop54
  1
strokes_ogs.tif
102
RTVSPost2010PropOp54
 70
     1
102
RTVSPost2010Prop55
280
     0
102
RTVSPost2010PropOp55
 70
     1
102
RTVSPost2010Prop56
140
1.0
102
RTVSPost2010PropOp56
 70
     1
102
RTVSPost2010Prop57
140
1.0
102
RTVSPost2010PropOp57
 70
     1
  0
XRECORD
  5
136
102
{ACAD_REACTORS
330
135
102
}
330
135
100
AcDbXrecord
280
     1
102
RTVSPost2010Prop28
280
     0
102
RTVSPost2010PropOp28
 70
     0
102
RTVSPost2010Prop29
280
     1
102
RTVSPost2010PropOp29
 70
     0
102
RTVSPost2010Prop30
280
     1
102
RTVSPost2010PropOp30
 70
     0
102
RTVSPost2010Prop31
280
     0
102
RTVSPost2010PropOp31
 70
     0
102
RTVSPost2010Prop32
280
     0
102
RTVSPost2010PropOp32
 70
     0
102
RTVSPost2010Prop33
280
     0
102
RTVSPost2010PropOp33
 70
     0
102
RTVSPost2010Prop34
280
     0
102
RTVSPost2010PropOp34
 70
     0
102
RTVSPost2010Prop35
280
     0
102
RTVSPost2010PropOp35
 70
     0
102
RTVSPost2010Prop36
280
     0
102
RTVSPost2010PropOp36
 70
     0
102
RTVSPost2010Prop37
 90
       50
102
RTVSPost2010PropOp37
 70
     0
102
RTVSPost2010Prop38
140
0.0
102
RTVSPost2010PropOp38
 70
     0
102
RTVSPost2010Prop39
140
1.0
102
RTVSPost2010PropOp39
 70
     0
102
RTVSPost2010Prop40
 90
        0
102
RTVSPost2010PropOp40
 70
     0
102
RTVSPost2010Prop41ColorIndex
 90
       18
102
RTVSPost2010Prop41ColorRGB
 90
        0
102
RTVSPost2010PropOp41
 70
     0
102
RTVSPost2010Prop42
 90
       50
102
RTVSPost2010PropOp42
 70
     0
102
RTVSPost2010Prop43
 90
        3
102
RTVSPost2010PropOp43
 70
     0
102
RTVSPost2010Prop44ColorIndex
 90
        5
102
RTVSPost2010Prop44ColorRGB
 90
      255
102
RTVSPost2010PropOp44
 70
     0
102
RTVSPost2010Prop45
280
     0
102
RTVSPost2010PropOp45
 70
     0
102
RTVSPost2010Prop46
 90
       50
102
RTVSPost2010PropOp46
 70
     0
102
RTVSPost2010Prop47
 90
       50
102
RTVSPost2010PropOp47
 70
     0
102
RTVSPost2010Prop48
 90
       50
102
RTVSPost2010PropOp48
 70
     0
102
RTVSPost2010Prop49
280
     0
102
RTVSPost2010PropOp49
 70
     0
102
RTVSPost2010Prop50
 90
       50
102
RTVSPost2010PropOp50
 70
     0
102
RTVSPost2010Prop51ColorIndex
 90
      256
102
RTVSPost2010Prop51ColorRGB
 90
-16777216
102
RTVSPost2010PropOp51
 70
     0
102
RTVSPost2010Prop52
140
1.0
102
RTVSPost2010PropOp52
 70
     0
102
RTVSPost2010Prop53
 90
        2
102
RTVSPost2010PropOp53
 70
     0
102
RTVSPost2010Prop54
  1
strokes_ogs.tif
102
RTVSPost2010PropOp54
 70
     0
102
RTVSPost2010Prop55
280
     0
102
RTVSPost2010PropOp55
 70
     0
102
RTVSPost2010Prop56
140
1.0
102
RTVSPost2010PropOp56
 70
     0
102
RTVSPost2010Prop57
140
1.0
102
RTVSPost2010PropOp57
 70
     0
  0
XRECORD
  5
124
102
{ACAD_REACTORS
330
123
102
}
330
123
100
AcDbXrecord
280
     1
102
RTVSPost2010Prop28
280
     0
102
RTVSPost2010PropOp28
 70
     1
102
RTVSPost2010Prop29
280
     1
102
RTVSPost2010PropOp29
 70
     1
102
RTVSPost2010Prop30
280
     1
102
RTVSPost2010PropOp30
 70
     1
102
RTVSPost2010Prop31
280
     0
102
RTVSPost2010PropOp31
 70
     1
102
RTVSPost2010Prop32
280
     0
102
RTVSPost2010PropOp32
 70
     1
102
RTVSPost2010Prop33
280
     0
102
RTVSPost2010PropOp33
 70
     1
102
RTVSPost2010Prop34
280
     0
102
RTVSPost2010PropOp34
 70
     1
102
RTVSPost2010Prop35
280
     0
102
RTVSPost2010PropOp35
 70
     1
102
RTVSPost2010Prop36
280
     0
102
RTVSPost2010PropOp36
 70
     1
102
RTVSPost2010Prop37
 90
       50
102
RTVSPost2010PropOp37
 70
     1
102
RTVSPost2010Prop38
140
0.0
102
RTVSPost2010PropOp38
 70
     1
102
RTVSPost2010Prop39
140
1.0
102
RTVSPost2010PropOp39
 70
     1
102
RTVSPost2010Prop40
 90
        0
102
RTVSPost2010PropOp40
 70
     1
102
RTVSPost2010Prop41ColorIndex
 90
       18
102
RTVSPost2010Prop41ColorRGB
 90
        0
102
RTVSPost2010PropOp41
 70
     1
102
RTVSPost2010Prop42
 90
       50
102
RTVSPost2010PropOp42
 70
     1
102
RTVSPost2010Prop43
 90
        3
102
RTVSPost2010PropOp43
 70
     1
102
RTVSPost2010Prop44ColorIndex
 90
        5
102
RTVSPost2010Prop44ColorRGB
 90
      255
102
RTVSPost2010PropOp44
 70
     1
102
RTVSPost2010Prop45
280
     0
102
RTVSPost2010PropOp45
 70
     1
102
RTVSPost2010Prop46
 90
       50
102
RTVSPost2010PropOp46
 70
     1
102
RTVSPost2010Prop47
 90
       50
102
RTVSPost2010PropOp47
 70
     1
102
RTVSPost2010Prop48
 90
       50
102
RTVSPost2010PropOp48
 70
     1
102
RTVSPost2010Prop49
280
     0
102
RTVSPost2010PropOp49
 70
     1
102
RTVSPost2010Prop50
 90
       50
102
RTVSPost2010PropOp50
 70
     1
102
RTVSPost2010Prop51ColorIndex
 90
      256
102
RTVSPost2010Prop51ColorRGB
 90
-16777216
102
RTVSPost2010PropOp51
 70
     0
102
RTVSPost2010Prop52
140
1.0
102
RTVSPost2010PropOp52
 70
     0
102
RTVSPost2010Prop53
 90
        2
102
RTVSPost2010PropOp53
 70
     1
102
RTVSPost2010Prop54
  1
strokes_ogs.tif
102
RTVSPost2010PropOp54
 70
     1
102
RTVSPost2010Prop55
280
     0
102
RTVSPost2010PropOp55
 70
     1
102
RTVSPost2010Prop56
140
1.0
102
RTVSPost2010PropOp56
 70
     1
102
RTVSPost2010Prop57
140
1.0
102
RTVSPost2010PropOp57
 70
     1
  0
XRECORD
  5
108
102
{ACAD_REACTORS
330
107
102
}
330
107
100
AcDbXrecord
280
     1
102
RTVSPost2010Prop28
280
     0
102
RTVSPost2010PropOp28
 70
     1
102
RTVSPost2010Prop29
280
     1
102
RTVSPost2010PropOp29
 70
     1
102
RTVSPost2010Prop30
280
     1
102
RTVSPost2010PropOp30
 70
     1
102
RTVSPost2010Prop31
280
     0
102
RTVSPost2010PropOp31
 70
     1
102
RTVSPost2010Prop32
280
     0
102
RTVSPost2010PropOp32
 70
     1
102
RTVSPost2010Prop33
280
     0
102
RTVSPost2010PropOp33
 70
     1
102
RTVSPost2010Prop34
280
     0
102
RTVSPost2010PropOp34
 70
     1
102
RTVSPost2010Prop35
280
     0
102
RTVSPost2010PropOp35
 70
     1
102
RTVSPost2010Prop36
280
     0
102
RTVSPost2010PropOp36
 70
     1
102
RTVSPost2010Prop37
 90
       50
102
RTVSPost2010PropOp37
 70
     1
102
RTVSPost2010Prop38
140
0.0
102
RTVSPost2010PropOp38
 70
     1
102
RTVSPost2010Prop39
140
1.0
102
RTVSPost2010PropOp39
 70
     1
102
RTVSPost2010Prop40
 90
        0
102
RTVSPost2010PropOp40
 70
     1
102
RTVSPost2010Prop41ColorIndex
 90
       18
102
RTVSPost2010Prop41ColorRGB
 90
        0
102
RTVSPost2010PropOp41
 70
     1
102
RTVSPost2010Prop42
 90
       50
102
RTVSPost2010PropOp42
 70
     1
102
RTVSPost2010Prop43
 90
        3
102
RTVSPost2010PropOp43
 70
     1
102
RTVSPost2010Prop44ColorIndex
 90
        5
102
RTVSPost2010Prop44ColorRGB
 90
      255
102
RTVSPost2010PropOp44
 70
     1
102
RTVSPost2010Prop45
280
     0
102
RTVSPost2010PropOp45
 70
     1
102
RTVSPost2010Prop46
 90
       50
102
RTVSPost2010PropOp46
 70
     1
102
RTVSPost2010Prop47
 90
       50
102
RTVSPost2010PropOp47
 70
     1
102
RTVSPost2010Prop48
 90
       50
102
RTVSPost2010PropOp48
 70
     1
102
RTVSPost2010Prop49
280
     0
102
RTVSPost2010PropOp49
 70
     1
102
RTVSPost2010Prop50
 90
       50
102
RTVSPost2010PropOp50
 70
     1
102
RTVSPost2010Prop51ColorIndex
 90
      256
102
RTVSPost2010Prop51ColorRGB
 90
-16777216
102
RTVSPost2010PropOp51
 70
     0
102
RTVSPost2010Prop52
140
1.0
102
RTVSPost2010PropOp52
 70
     0
102
RTVSPost2010Prop53
 90
        2
102
RTVSPost2010PropOp53
 70
     1
102
RTVSPost2010Prop54
  1
strokes_ogs.tif
102
RTVSPost2010PropOp54
 70
     1
102
RTVSPost2010Prop55
280
     0
102
RTVSPost2010PropOp55
 70
     1
102
RTVSPost2010Prop56
140
1.0
102
RTVSPost2010PropOp56
 70
     1
102
RTVSPost2010Prop57
140
1.0
102
RTVSPost2010PropOp57
 70
     1
  0
XRECORD
  5
10A
102
{ACAD_REACTORS
330
109
102
}
330
109
100
AcDbXrecord
280
     1
102
RTVSPost2010Prop28
280
     0
102
RTVSPost2010PropOp28
 70
     1
102
RTVSPost2010Prop29
280
     1
102
RTVSPost2010PropOp29
 70
     1
102
RTVSPost2010Prop30
280
     1
102
RTVSPost2010PropOp30
 70
     1
102
RTVSPost2010Prop31
280
     0
102
RTVSPost2010PropOp31
 70
     1
102
RTVSPost2010Prop32
280
     0
102
RTVSPost2010PropOp32
 70
     1
102
RTVSPost2010Prop33
280
     0
102
RTVSPost2010PropOp33
 70
     1
102
RTVSPost2010Prop34
280
     0
102
RTVSPost2010PropOp34
 70
     1
102
RTVSPost2010Prop35
280
     0
102
RTVSPost2010PropOp35
 70
     1
102
RTVSPost2010Prop36
280
     0
102
RTVSPost2010PropOp36
 70
     1
102
RTVSPost2010Prop37
 90
       50
102
RTVSPost2010PropOp37
 70
     1
102
RTVSPost2010Prop38
140
0.0
102
RTVSPost2010PropOp38
 70
     1
102
RTVSPost2010Prop39
140
1.0
102
RTVSPost2010PropOp39
 70
     1
102
RTVSPost2010Prop40
 90
        0
102
RTVSPost2010PropOp40
 70
     1
102
RTVSPost2010Prop41ColorIndex
 90
       18
102
RTVSPost2010Prop41ColorRGB
 90
        0
102
RTVSPost2010PropOp41
 70
     1
102
RTVSPost2010Prop42
 90
       50
102
RTVSPost2010PropOp42
 70
     1
102
RTVSPost2010Prop43
 90
        3
102
RTVSPost2010PropOp43
 70
     1
102
RTVSPost2010Prop44ColorIndex
 90
        5
102
RTVSPost2010Prop44ColorRGB
 90
      255
102
RTVSPost2010PropOp44
 70
     1
102
RTVSPost2010Prop45
280
     0
102
RTVSPost2010PropOp45
 70
     1
102
RTVSPost2010Prop46
 90
       50
102
RTVSPost2010PropOp46
 70
     1
102
RTVSPost2010Prop47
 90
       50
102
RTVSPost2010PropOp47
 70
     1
102
RTVSPost2010Prop48
 90
       50
102
RTVSPost2010PropOp48
 70
     1
102
RTVSPost2010Prop49
280
     0
102
RTVSPost2010PropOp49
 70
     1
102
RTVSPost2010Prop50
 90
       50
102
RTVSPost2010PropOp50
 70
     1
102
RTVSPost2010Prop51ColorIndex
 90
      256
102
RTVSPost2010Prop51ColorRGB
 90
-16777216
102
RTVSPost2010PropOp51
 70
     0
102
RTVSPost2010Prop52
140
1.0
102
RTVSPost2010PropOp52
 70
     0
102
RTVSPost2010Prop53
 90
        2
102
RTVSPost2010PropOp53
 70
     1
102
RTVSPost2010Prop54
  1
strokes_ogs.tif
102
RTVSPost2010PropOp54
 70
     1
102
RTVSPost2010Prop55
280
     0
102
RTVSPost2010PropOp55
 70
     1
102
RTVSPost2010Prop56
140
1.0
102
RTVSPost2010PropOp56
 70
     1
102
RTVSPost2010Prop57
140
1.0
102
RTVSPost2010PropOp57
 70
     1
  0
XRECORD
  5
10C
102
{ACAD_REACTORS
330
10B
102
}
330
10B
100
AcDbXrecord
280
     1
102
RTVSPost2010Prop28
280
     0
102
RTVSPost2010PropOp28
 70
     1
102
RTVSPost2010Prop29
280
     1
102
RTVSPost2010PropOp29
 70
     1
102
RTVSPost2010Prop30
280
     1
102
RTVSPost2010PropOp30
 70
     1
102
RTVSPost2010Prop31
280
     0
102
RTVSPost2010PropOp31
 70
     1
102
RTVSPost2010Prop32
280
     0
102
RTVSPost2010PropOp32
 70
     1
102
RTVSPost2010Prop33
280
     0
102
RTVSPost2010PropOp33
 70
     1
102
RTVSPost2010Prop34
280
     0
102
RTVSPost2010PropOp34
 70
     1
102
RTVSPost2010Prop35
280
     0
102
RTVSPost2010PropOp35
 70
     1
102
RTVSPost2010Prop36
280
     0
102
RTVSPost2010PropOp36
 70
     1
102
RTVSPost2010Prop37
 90
       50
102
RTVSPost2010PropOp37
 70
     1
102
RTVSPost2010Prop38
140
0.0
102
RTVSPost2010PropOp38
 70
     1
102
RTVSPost2010Prop39
140
1.0
102
RTVSPost2010PropOp39
 70
     1
102
RTVSPost2010Prop40
 90
        0
102
RTVSPost2010PropOp40
 70
     1
102
RTVSPost2010Prop41ColorIndex
 90
       18
102
RTVSPost2010Prop41ColorRGB
 90
        0
102
RTVSPost2010PropOp41
 70
     1
102
RTVSPost2010Prop42
 90
       50
102
RTVSPost2010PropOp42
 70
     1
102
RTVSPost2010Prop43
 90
        3
102
RTVSPost2010PropOp43
 70
     1
102
RTVSPost2010Prop44ColorIndex
 90
        5
102
RTVSPost2010Prop44ColorRGB
 90
      255
102
RTVSPost2010PropOp44
 70
     1
102
RTVSPost2010Prop45
280
     0
102
RTVSPost2010PropOp45
 70
     1
102
RTVSPost2010Prop46
 90
       50
102
RTVSPost2010PropOp46
 70
     1
102
RTVSPost2010Prop47
 90
       50
102
RTVSPost2010PropOp47
 70
     1
102
RTVSPost2010Prop48
 90
       50
102
RTVSPost2010PropOp48
 70
     1
102
RTVSPost2010Prop49
280
     0
102
RTVSPost2010PropOp49
 70
     1
102
RTVSPost2010Prop50
 90
       50
102
RTVSPost2010PropOp50
 70
     1
102
RTVSPost2010Prop51ColorIndex
 90
      256
102
RTVSPost2010Prop51ColorRGB
 90
-16777216
102
RTVSPost2010PropOp51
 70
     0
102
RTVSPost2010Prop52
140
1.0
102
RTVSPost2010PropOp52
 70
     0
102
RTVSPost2010Prop53
 90
        2
102
RTVSPost2010PropOp53
 70
     1
102
RTVSPost2010Prop54
  1
strokes_ogs.tif
102
RTVSPost2010PropOp54
 70
     1
102
RTVSPost2010Prop55
280
     0
102
RTVSPost2010PropOp55
 70
     1
102
RTVSPost2010Prop56
140
1.0
102
RTVSPost2010PropOp56
 70
     1
102
RTVSPost2010Prop57
140
1.0
102
RTVSPost2010PropOp57
 70
     1
  0
XRECORD
  5
10E
102
{ACAD_REACTORS
330
10D
102
}
330
10D
100
AcDbXrecord
280
     1
102
RTVSPost2010Prop28
280
     0
102
RTVSPost2010PropOp28
 70
     1
102
RTVSPost2010Prop29
280
     1
102
RTVSPost2010PropOp29
 70
     1
102
RTVSPost2010Prop30
280
     1
102
RTVSPost2010PropOp30
 70
     1
102
RTVSPost2010Prop31
280
     0
102
RTVSPost2010PropOp31
 70
     1
102
RTVSPost2010Prop32
280
     0
102
RTVSPost2010PropOp32
 70
     1
102
RTVSPost2010Prop33
280
     0
102
RTVSPost2010PropOp33
 70
     1
102
RTVSPost2010Prop34
280
     0
102
RTVSPost2010PropOp34
 70
     1
102
RTVSPost2010Prop35
280
     0
102
RTVSPost2010PropOp35
 70
     1
102
RTVSPost2010Prop36
280
     0
102
RTVSPost2010PropOp36
 70
     1
102
RTVSPost2010Prop37
 90
       50
102
RTVSPost2010PropOp37
 70
     1
102
RTVSPost2010Prop38
140
0.0
102
RTVSPost2010PropOp38
 70
     1
102
RTVSPost2010Prop39
140
1.0
102
RTVSPost2010PropOp39
 70
     1
102
RTVSPost2010Prop40
 90
        0
102
RTVSPost2010PropOp40
 70
     1
102
RTVSPost2010Prop41ColorIndex
 90
       18
102
RTVSPost2010Prop41ColorRGB
 90
        0
102
RTVSPost2010PropOp41
 70
     1
102
RTVSPost2010Prop42
 90
       50
102
RTVSPost2010PropOp42
 70
     1
102
RTVSPost2010Prop43
 90
        3
102
RTVSPost2010PropOp43
 70
     1
102
RTVSPost2010Prop44ColorIndex
 90
        5
102
RTVSPost2010Prop44ColorRGB
 90
      255
102
RTVSPost2010PropOp44
 70
     1
102
RTVSPost2010Prop45
280
     0
102
RTVSPost2010PropOp45
 70
     1
102
RTVSPost2010Prop46
 90
       50
102
RTVSPost2010PropOp46
 70
     1
102
RTVSPost2010Prop47
 90
       50
102
RTVSPost2010PropOp47
 70
     1
102
RTVSPost2010Prop48
 90
       50
102
RTVSPost2010PropOp48
 70
     1
102
RTVSPost2010Prop49
280
     0
102
RTVSPost2010PropOp49
 70
     1
102
RTVSPost2010Prop50
 90
       50
102
RTVSPost2010PropOp50
 70
     1
102
RTVSPost2010Prop51ColorIndex
 90
      256
102
RTVSPost2010Prop51ColorRGB
 90
-16777216
102
RTVSPost2010PropOp51
 70
     0
102
RTVSPost2010Prop52
140
1.0
102
RTVSPost2010PropOp52
 70
     0
102
RTVSPost2010Prop53
 90
        2
102
RTVSPost2010PropOp53
 70
     1
102
RTVSPost2010Prop54
  1
strokes_ogs.tif
102
RTVSPost2010PropOp54
 70
     1
102
RTVSPost2010Prop55
280
     0
102
RTVSPost2010PropOp55
 70
     1
102
RTVSPost2010Prop56
140
1.0
102
RTVSPost2010PropOp56
 70
     1
102
RTVSPost2010Prop57
140
1.0
102
RTVSPost2010PropOp57
 70
     1
  0
XRECORD
  5
116
102
{ACAD_REACTORS
330
115
102
}
330
115
100
AcDbXrecord
280
     1
102
RTVSPost2010Prop28
280
     0
102
RTVSPost2010PropOp28
 70
     1
102
RTVSPost2010Prop29
280
     1
102
RTVSPost2010PropOp29
 70
     1
102
RTVSPost2010Prop30
280
     1
102
RTVSPost2010PropOp30
 70
     1
102
RTVSPost2010Prop31
280
     0
102
RTVSPost2010PropOp31
 70
     1
102
RTVSPost2010Prop32
280
     0
102
RTVSPost2010PropOp32
 70
     1
102
RTVSPost2010Prop33
280
     0
102
RTVSPost2010PropOp33
 70
     1
102
RTVSPost2010Prop34
280
     0
102
RTVSPost2010PropOp34
 70
     1
102
RTVSPost2010Prop35
280
     0
102
RTVSPost2010PropOp35
 70
     1
102
RTVSPost2010Prop36
280
     0
102
RTVSPost2010PropOp36
 70
     1
102
RTVSPost2010Prop37
 90
       50
102
RTVSPost2010PropOp37
 70
     1
102
RTVSPost2010Prop38
140
0.0
102
RTVSPost2010PropOp38
 70
     1
102
RTVSPost2010Prop39
140
1.0
102
RTVSPost2010PropOp39
 70
     1
102
RTVSPost2010Prop40
 90
        0
102
RTVSPost2010PropOp40
 70
     1
102
RTVSPost2010Prop41ColorIndex
 90
       18
102
RTVSPost2010Prop41ColorRGB
 90
        0
102
RTVSPost2010PropOp41
 70
     1
102
RTVSPost2010Prop42
 90
       50
102
RTVSPost2010PropOp42
 70
     1
102
RTVSPost2010Prop43
 90
        3
102
RTVSPost2010PropOp43
 70
     1
102
RTVSPost2010Prop44ColorIndex
 90
        5
102
RTVSPost2010Prop44ColorRGB
 90
      255
102
RTVSPost2010PropOp44
 70
     1
102
RTVSPost2010Prop45
280
     0
102
RTVSPost2010PropOp45
 70
     1
102
RTVSPost2010Prop46
 90
       50
102
RTVSPost2010PropOp46
 70
     1
102
RTVSPost2010Prop47
 90
       50
102
RTVSPost2010PropOp47
 70
     1
102
RTVSPost2010Prop48
 90
       50
102
RTVSPost2010PropOp48
 70
     1
102
RTVSPost2010Prop49
280
     0
102
RTVSPost2010PropOp49
 70
     1
102
RTVSPost2010Prop50
 90
       50
102
RTVSPost2010PropOp50
 70
     1
102
RTVSPost2010Prop51ColorIndex
 90
      256
102
RTVSPost2010Prop51ColorRGB
 90
-16777216
102
RTVSPost2010PropOp51
 70
     0
102
RTVSPost2010Prop52
140
1.0
102
RTVSPost2010PropOp52
 70
     0
102
RTVSPost2010Prop53
 90
        2
102
RTVSPost2010PropOp53
 70
     1
102
RTVSPost2010Prop54
  1
strokes_ogs.tif
102
RTVSPost2010PropOp54
 70
     1
102
RTVSPost2010Prop55
280
     0
102
RTVSPost2010PropOp55
 70
     1
102
RTVSPost2010Prop56
140
1.0
102
RTVSPost2010PropOp56
 70
     1
102
RTVSPost2010Prop57
140
1.0
102
RTVSPost2010PropOp57
 70
     1
  0
XRECORD
  5
132
102
{ACAD_REACTORS
330
131
102
}
330
131
100
AcDbXrecord
280
     1
102
RTVSPost2010Prop28
280
     0
102
RTVSPost2010PropOp28
 70
     0
102
RTVSPost2010Prop29
280
     1
102
RTVSPost2010PropOp29
 70
     0
102
RTVSPost2010Prop30
280
     1
102
RTVSPost2010PropOp30
 70
     0
102
RTVSPost2010Prop31
280
     0
102
RTVSPost2010PropOp31
 70
     0
102
RTVSPost2010Prop32
280
     0
102
RTVSPost2010PropOp32
 70
     0
102
RTVSPost2010Prop33
280
     0
102
RTVSPost2010PropOp33
 70
     0
102
RTVSPost2010Prop34
280
     0
102
RTVSPost2010PropOp34
 70
     0
102
RTVSPost2010Prop35
280
     0
102
RTVSPost2010PropOp35
 70
     0
102
RTVSPost2010Prop36
280
     0
102
RTVSPost2010PropOp36
 70
     0
102
RTVSPost2010Prop37
 90
       50
102
RTVSPost2010PropOp37
 70
     0
102
RTVSPost2010Prop38
140
0.0
102
RTVSPost2010PropOp38
 70
     0
102
RTVSPost2010Prop39
140
1.0
102
RTVSPost2010PropOp39
 70
     0
102
RTVSPost2010Prop40
 90
        0
102
RTVSPost2010PropOp40
 70
     0
102
RTVSPost2010Prop41ColorIndex
 90
       18
102
RTVSPost2010Prop41ColorRGB
 90
        0
102
RTVSPost2010PropOp41
 70
     0
102
RTVSPost2010Prop42
 90
       50
102
RTVSPost2010PropOp42
 70
     0
102
RTVSPost2010Prop43
 90
        3
102
RTVSPost2010PropOp43
 70
     0
102
RTVSPost2010Prop44ColorIndex
 90
        5
102
RTVSPost2010Prop44ColorRGB
 90
      255
102
RTVSPost2010PropOp44
 70
     0
102
RTVSPost2010Prop45
280
     0
102
RTVSPost2010PropOp45
 70
     0
102
RTVSPost2010Prop46
 90
       50
102
RTVSPost2010PropOp46
 70
     0
102
RTVSPost2010Prop47
 90
       50
102
RTVSPost2010PropOp47
 70
     0
102
RTVSPost2010Prop48
 90
       50
102
RTVSPost2010PropOp48
 70
     0
102
RTVSPost2010Prop49
280
     0
102
RTVSPost2010PropOp49
 70
     0
102
RTVSPost2010Prop50
 90
       50
102
RTVSPost2010PropOp50
 70
     0
102
RTVSPost2010Prop51ColorIndex
 90
      256
102
RTVSPost2010Prop51ColorRGB
 90
-16777216
102
RTVSPost2010PropOp51
 70
     0
102
RTVSPost2010Prop52
140
1.0
102
RTVSPost2010PropOp52
 70
     0
102
RTVSPost2010Prop53
 90
        2
102
RTVSPost2010PropOp53
 70
     0
102
RTVSPost2010Prop54
  1
strokes_ogs.tif
102
RTVSPost2010PropOp54
 70
     0
102
RTVSPost2010Prop55
280
     0
102
RTVSPost2010PropOp55
 70
     0
102
RTVSPost2010Prop56
140
1.0
102
RTVSPost2010PropOp56
 70
     0
102
RTVSPost2010Prop57
140
1.0
102
RTVSPost2010PropOp57
 70
     0
  0
XRECORD
  5
122
102
{ACAD_REACTORS
330
121
102
}
330
121
100
AcDbXrecord
280
     1
102
RTVSPost2010Prop28
280
     0
102
RTVSPost2010PropOp28
 70
     1
102
RTVSPost2010Prop29
280
     1
102
RTVSPost2010PropOp29
 70
     1
102
RTVSPost2010Prop30
280
     1
102
RTVSPost2010PropOp30
 70
     1
102
RTVSPost2010Prop31
280
     0
102
RTVSPost2010PropOp31
 70
     1
102
RTVSPost2010Prop32
280
     0
102
RTVSPost2010PropOp32
 70
     1
102
RTVSPost2010Prop33
280
     0
102
RTVSPost2010PropOp33
 70
     1
102
RTVSPost2010Prop34
280
     0
102
RTVSPost2010PropOp34
 70
     1
102
RTVSPost2010Prop35
280
     0
102
RTVSPost2010PropOp35
 70
     1
102
RTVSPost2010Prop36
280
     0
102
RTVSPost2010PropOp36
 70
     1
102
RTVSPost2010Prop37
 90
       50
102
RTVSPost2010PropOp37
 70
     1
102
RTVSPost2010Prop38
140
0.0
102
RTVSPost2010PropOp38
 70
     1
102
RTVSPost2010Prop39
140
1.0
102
RTVSPost2010PropOp39
 70
     1
102
RTVSPost2010Prop40
 90
        0
102
RTVSPost2010PropOp40
 70
     1
102
RTVSPost2010Prop41ColorIndex
 90
       18
102
RTVSPost2010Prop41ColorRGB
 90
        0
102
RTVSPost2010PropOp41
 70
     1
102
RTVSPost2010Prop42
 90
       50
102
RTVSPost2010PropOp42
 70
     1
102
RTVSPost2010Prop43
 90
        3
102
RTVSPost2010PropOp43
 70
     1
102
RTVSPost2010Prop44ColorIndex
 90
        5
102
RTVSPost2010Prop44ColorRGB
 90
      255
102
RTVSPost2010PropOp44
 70
     1
102
RTVSPost2010Prop45
280
     0
102
RTVSPost2010PropOp45
 70
     1
102
RTVSPost2010Prop46
 90
       50
102
RTVSPost2010PropOp46
 70
     1
102
RTVSPost2010Prop47
 90
       50
102
RTVSPost2010PropOp47
 70
     1
102
RTVSPost2010Prop48
 90
       50
102
RTVSPost2010PropOp48
 70
     1
102
RTVSPost2010Prop49
280
     0
102
RTVSPost2010PropOp49
 70
     1
102
RTVSPost2010Prop50
 90
       50
102
RTVSPost2010PropOp50
 70
     1
102
RTVSPost2010Prop51ColorIndex
 90
      256
102
RTVSPost2010Prop51ColorRGB
 90
-16777216
102
RTVSPost2010PropOp51
 70
     0
102
RTVSPost2010Prop52
140
1.0
102
RTVSPost2010PropOp52
 70
     0
102
RTVSPost2010Prop53
 90
        2
102
RTVSPost2010PropOp53
 70
     1
102
RTVSPost2010Prop54
  1
strokes_ogs.tif
102
RTVSPost2010PropOp54
 70
     1
102
RTVSPost2010Prop55
280
     0
102
RTVSPost2010PropOp55
 70
     1
102
RTVSPost2010Prop56
140
1.0
102
RTVSPost2010PropOp56
 70
     1
102
RTVSPost2010Prop57
140
1.0
102
RTVSPost2010PropOp57
 70
     1
  0
XRECORD
  5
134
102
{ACAD_REACTORS
330
133
102
}
330
133
100
AcDbXrecord
280
     1
102
RTVSPost2010Prop28
280
     0
102
RTVSPost2010PropOp28
 70
     0
102
RTVSPost2010Prop29
280
     1
102
RTVSPost2010PropOp29
 70
     0
102
RTVSPost2010Prop30
280
     1
102
RTVSPost2010PropOp30
 70
     0
102
RTVSPost2010Prop31
280
     0
102
RTVSPost2010PropOp31
 70
     0
102
RTVSPost2010Prop32
280
     0
102
RTVSPost2010PropOp32
 70
     0
102
RTVSPost2010Prop33
280
     0
102
RTVSPost2010PropOp33
 70
     0
102
RTVSPost2010Prop34
280
     0
102
RTVSPost2010PropOp34
 70
     0
102
RTVSPost2010Prop35
280
     0
102
RTVSPost2010PropOp35
 70
     0
102
RTVSPost2010Prop36
280
     0
102
RTVSPost2010PropOp36
 70
     0
102
RTVSPost2010Prop37
 90
       50
102
RTVSPost2010PropOp37
 70
     0
102
RTVSPost2010Prop38
140
0.0
102
RTVSPost2010PropOp38
 70
     0
102
RTVSPost2010Prop39
140
1.0
102
RTVSPost2010PropOp39
 70
     0
102
RTVSPost2010Prop40
 90
        0
102
RTVSPost2010PropOp40
 70
     0
102
RTVSPost2010Prop41ColorIndex
 90
       18
102
RTVSPost2010Prop41ColorRGB
 90
        0
102
RTVSPost2010PropOp41
 70
     0
102
RTVSPost2010Prop42
 90
       50
102
RTVSPost2010PropOp42
 70
     0
102
RTVSPost2010Prop43
 90
        3
102
RTVSPost2010PropOp43
 70
     0
102
RTVSPost2010Prop44ColorIndex
 90
        5
102
RTVSPost2010Prop44ColorRGB
 90
      255
102
RTVSPost2010PropOp44
 70
     0
102
RTVSPost2010Prop45
280
     0
102
RTVSPost2010PropOp45
 70
     0
102
RTVSPost2010Prop46
 90
       50
102
RTVSPost2010PropOp46
 70
     0
102
RTVSPost2010Prop47
 90
       50
102
RTVSPost2010PropOp47
 70
     0
102
RTVSPost2010Prop48
 90
       50
102
RTVSPost2010PropOp48
 70
     0
102
RTVSPost2010Prop49
280
     0
102
RTVSPost2010PropOp49
 70
     0
102
RTVSPost2010Prop50
 90
       50
102
RTVSPost2010PropOp50
 70
     0
102
RTVSPost2010Prop51ColorIndex
 90
      256
102
RTVSPost2010Prop51ColorRGB
 90
-16777216
102
RTVSPost2010PropOp51
 70
     0
102
RTVSPost2010Prop52
140
1.0
102
RTVSPost2010PropOp52
 70
     0
102
RTVSPost2010Prop53
 90
        2
102
RTVSPost2010PropOp53
 70
     0
102
RTVSPost2010Prop54
  1
strokes_ogs.tif
102
RTVSPost2010PropOp54
 70
     0
102
RTVSPost2010Prop55
280
     0
102
RTVSPost2010PropOp55
 70
     0
102
RTVSPost2010Prop56
140
1.0
102
RTVSPost2010PropOp56
 70
     0
102
RTVSPost2010Prop57
140
1.0
102
RTVSPost2010PropOp57
 70
     0
  0
XRECORD
  5
11A
102
{ACAD_REACTORS
330
119
102
}
330
119
100
AcDbXrecord
280
     1
102
RTVSPost2010Prop28
280
     0
102
RTVSPost2010PropOp28
 70
     1
102
RTVSPost2010Prop29
280
     1
102
RTVSPost2010PropOp29
 70
     1
102
RTVSPost2010Prop30
280
     1
102
RTVSPost2010PropOp30
 70
     1
102
RTVSPost2010Prop31
280
     0
102
RTVSPost2010PropOp31
 70
     1
102
RTVSPost2010Prop32
280
     0
102
RTVSPost2010PropOp32
 70
     1
102
RTVSPost2010Prop33
280
     0
102
RTVSPost2010PropOp33
 70
     1
102
RTVSPost2010Prop34
280
     0
102
RTVSPost2010PropOp34
 70
     1
102
RTVSPost2010Prop35
280
     0
102
RTVSPost2010PropOp35
 70
     1
102
RTVSPost2010Prop36
280
     0
102
RTVSPost2010PropOp36
 70
     1
102
RTVSPost2010Prop37
 90
       50
102
RTVSPost2010PropOp37
 70
     1
102
RTVSPost2010Prop38
140
0.0
102
RTVSPost2010PropOp38
 70
     1
102
RTVSPost2010Prop39
140
1.0
102
RTVSPost2010PropOp39
 70
     1
102
RTVSPost2010Prop40
 90
        0
102
RTVSPost2010PropOp40
 70
     1
102
RTVSPost2010Prop41ColorIndex
 90
       18
102
RTVSPost2010Prop41ColorRGB
 90
        0
102
RTVSPost2010PropOp41
 70
     1
102
RTVSPost2010Prop42
 90
       50
102
RTVSPost2010PropOp42
 70
     1
102
RTVSPost2010Prop43
 90
        3
102
RTVSPost2010PropOp43
 70
     1
102
RTVSPost2010Prop44ColorIndex
 90
        5
102
RTVSPost2010Prop44ColorRGB
 90
      255
102
RTVSPost2010PropOp44
 70
     1
102
RTVSPost2010Prop45
280
     0
102
RTVSPost2010PropOp45
 70
     1
102
RTVSPost2010Prop46
 90
       50
102
RTVSPost2010PropOp46
 70
     1
102
RTVSPost2010Prop47
 90
       50
102
RTVSPost2010PropOp47
 70
     1
102
RTVSPost2010Prop48
 90
       50
102
RTVSPost2010PropOp48
 70
     1
102
RTVSPost2010Prop49
280
     0
102
RTVSPost2010PropOp49
 70
     1
102
RTVSPost2010Prop50
 90
       50
102
RTVSPost2010PropOp50
 70
     1
102
RTVSPost2010Prop51ColorIndex
 90
      256
102
RTVSPost2010Prop51ColorRGB
 90
-16777216
102
RTVSPost2010PropOp51
 70
     0
102
RTVSPost2010Prop52
140
1.0
102
RTVSPost2010PropOp52
 70
     0
102
RTVSPost2010Prop53
 90
        2
102
RTVSPost2010PropOp53
 70
     1
102
RTVSPost2010Prop54
  1
strokes_ogs.tif
102
RTVSPost2010PropOp54
 70
     1
102
RTVSPost2010Prop55
280
     0
102
RTVSPost2010PropOp55
 70
     1
102
RTVSPost2010Prop56
140
1.0
102
RTVSPost2010PropOp56
 70
     1
102
RTVSPost2010Prop57
140
1.0
102
RTVSPost2010PropOp57
 70
     1
  0
XRECORD
  5
130
102
{ACAD_REACTORS
330
12F
102
}
330
12F
100
AcDbXrecord
280
     1
102
RTVSPost2010Prop28
280
     0
102
RTVSPost2010PropOp28
 70
     1
102
RTVSPost2010Prop29
280
     1
102
RTVSPost2010PropOp29
 70
     1
102
RTVSPost2010Prop30
280
     1
102
RTVSPost2010PropOp30
 70
     1
102
RTVSPost2010Prop31
280
     0
102
RTVSPost2010PropOp31
 70
     1
102
RTVSPost2010Prop32
280
     0
102
RTVSPost2010PropOp32
 70
     1
102
RTVSPost2010Prop33
280
     0
102
RTVSPost2010PropOp33
 70
     1
102
RTVSPost2010Prop34
280
     0
102
RTVSPost2010PropOp34
 70
     1
102
RTVSPost2010Prop35
280
     0
102
RTVSPost2010PropOp35
 70
     1
102
RTVSPost2010Prop36
280
     0
102
RTVSPost2010PropOp36
 70
     1
102
RTVSPost2010Prop37
 90
       50
102
RTVSPost2010PropOp37
 70
     1
102
RTVSPost2010Prop38
140
0.0
102
RTVSPost2010PropOp38
 70
     1
102
RTVSPost2010Prop39
140
1.0
102
RTVSPost2010PropOp39
 70
     1
102
RTVSPost2010Prop40
 90
        0
102
RTVSPost2010PropOp40
 70
     1
102
RTVSPost2010Prop41ColorIndex
 90
       18
102
RTVSPost2010Prop41ColorRGB
 90
        0
102
RTVSPost2010PropOp41
 70
     1
102
RTVSPost2010Prop42
 90
       50
102
RTVSPost2010PropOp42
 70
     1
102
RTVSPost2010Prop43
 90
        3
102
RTVSPost2010PropOp43
 70
     1
102
RTVSPost2010Prop44ColorIndex
 90
        5
102
RTVSPost2010Prop44ColorRGB
 90
      255
102
RTVSPost2010PropOp44
 70
     1
102
RTVSPost2010Prop45
280
     0
102
RTVSPost2010PropOp45
 70
     1
102
RTVSPost2010Prop46
 90
       50
102
RTVSPost2010PropOp46
 70
     1
102
RTVSPost2010Prop47
 90
       50
102
RTVSPost2010PropOp47
 70
     1
102
RTVSPost2010Prop48
 90
       50
102
RTVSPost2010PropOp48
 70
     1
102
RTVSPost2010Prop49
280
     0
102
RTVSPost2010PropOp49
 70
     1
102
RTVSPost2010Prop50
 90
       50
102
RTVSPost2010PropOp50
 70
     1
102
RTVSPost2010Prop51ColorIndex
 90
      256
102
RTVSPost2010Prop51ColorRGB
 90
-16777216
102
RTVSPost2010PropOp51
 70
     0
102
RTVSPost2010Prop52
140
1.0
102
RTVSPost2010PropOp52
 70
     0
102
RTVSPost2010Prop53
 90
        2
102
RTVSPost2010PropOp53
 70
     1
102
RTVSPost2010Prop54
  1
strokes_ogs.tif
102
RTVSPost2010PropOp54
 70
     1
102
RTVSPost2010Prop55
280
     0
102
RTVSPost2010PropOp55
 70
     1
102
RTVSPost2010Prop56
140
1.0
102
RTVSPost2010PropOp56
 70
     1
102
RTVSPost2010Prop57
140
1.0
102
RTVSPost2010PropOp57
 70
     1
  0
XRECORD
  5
12E
102
{ACAD_REACTORS
330
12D
102
}
330
12D
100
AcDbXrecord
280
     1
102
RTVSPost2010Prop28
280
     0
102
RTVSPost2010PropOp28
 70
     1
102
RTVSPost2010Prop29
280
     1
102
RTVSPost2010PropOp29
 70
     1
102
RTVSPost2010Prop30
280
     1
102
RTVSPost2010PropOp30
 70
     1
102
RTVSPost2010Prop31
280
     0
102
RTVSPost2010PropOp31
 70
     1
102
RTVSPost2010Prop32
280
     0
102
RTVSPost2010PropOp32
 70
     1
102
RTVSPost2010Prop33
280
     0
102
RTVSPost2010PropOp33
 70
     1
102
RTVSPost2010Prop34
280
     0
102
RTVSPost2010PropOp34
 70
     1
102
RTVSPost2010Prop35
280
     0
102
RTVSPost2010PropOp35
 70
     1
102
RTVSPost2010Prop36
280
     0
102
RTVSPost2010PropOp36
 70
     1
102
RTVSPost2010Prop37
 90
       50
102
RTVSPost2010PropOp37
 70
     1
102
RTVSPost2010Prop38
140
0.0
102
RTVSPost2010PropOp38
 70
     1
102
RTVSPost2010Prop39
140
1.0
102
RTVSPost2010PropOp39
 70
     1
102
RTVSPost2010Prop40
 90
        0
102
RTVSPost2010PropOp40
 70
     1
102
RTVSPost2010Prop41ColorIndex
 90
       18
102
RTVSPost2010Prop41ColorRGB
 90
        0
102
RTVSPost2010PropOp41
 70
     1
102
RTVSPost2010Prop42
 90
       50
102
RTVSPost2010PropOp42
 70
     1
102
RTVSPost2010Prop43
 90
        3
102
RTVSPost2010PropOp43
 70
     1
102
RTVSPost2010Prop44ColorIndex
 90
        5
102
RTVSPost2010Prop44ColorRGB
 90
      255
102
RTVSPost2010PropOp44
 70
     1
102
RTVSPost2010Prop45
280
     0
102
RTVSPost2010PropOp45
 70
     1
102
RTVSPost2010Prop46
 90
       50
102
RTVSPost2010PropOp46
 70
     1
102
RTVSPost2010Prop47
 90
       50
102
RTVSPost2010PropOp47
 70
     1
102
RTVSPost2010Prop48
 90
       50
102
RTVSPost2010PropOp48
 70
     1
102
RTVSPost2010Prop49
280
     0
102
RTVSPost2010PropOp49
 70
     1
102
RTVSPost2010Prop50
 90
       50
102
RTVSPost2010PropOp50
 70
     1
102
RTVSPost2010Prop51ColorIndex
 90
      256
102
RTVSPost2010Prop51ColorRGB
 90
-16777216
102
RTVSPost2010PropOp51
 70
     0
102
RTVSPost2010Prop52
140
1.0
102
RTVSPost2010PropOp52
 70
     0
102
RTVSPost2010Prop53
 90
        2
102
RTVSPost2010PropOp53
 70
     1
102
RTVSPost2010Prop54
  1
strokes_ogs.tif
102
RTVSPost2010PropOp54
 70
     1
102
RTVSPost2010Prop55
280
     0
102
RTVSPost2010PropOp55
 70
     1
102
RTVSPost2010Prop56
140
1.0
102
RTVSPost2010PropOp56
 70
     1
102
RTVSPost2010Prop57
140
1.0
102
RTVSPost2010PropOp57
 70
     1
  0
XRECORD
  5
128
102
{ACAD_REACTORS
330
127
102
}
330
127
100
AcDbXrecord
280
     1
102
RTVSPost2010Prop28
280
     0
102
RTVSPost2010PropOp28
 70
     1
102
RTVSPost2010Prop29
280
     1
102
RTVSPost2010PropOp29
 70
     1
102
RTVSPost2010Prop30
280
     1
102
RTVSPost2010PropOp30
 70
     1
102
RTVSPost2010Prop31
280
     0
102
RTVSPost2010PropOp31
 70
     1
102
RTVSPost2010Prop32
280
     0
102
RTVSPost2010PropOp32
 70
     1
102
RTVSPost2010Prop33
280
     0
102
RTVSPost2010PropOp33
 70
     1
102
RTVSPost2010Prop34
280
     0
102
RTVSPost2010PropOp34
 70
     1
102
RTVSPost2010Prop35
280
     0
102
RTVSPost2010PropOp35
 70
     1
102
RTVSPost2010Prop36
280
     0
102
RTVSPost2010PropOp36
 70
     1
102
RTVSPost2010Prop37
 90
       50
102
RTVSPost2010PropOp37
 70
     1
102
RTVSPost2010Prop38
140
0.0
102
RTVSPost2010PropOp38
 70
     1
102
RTVSPost2010Prop39
140
1.0
102
RTVSPost2010PropOp39
 70
     1
102
RTVSPost2010Prop40
 90
        0
102
RTVSPost2010PropOp40
 70
     1
102
RTVSPost2010Prop41ColorIndex
 90
       18
102
RTVSPost2010Prop41ColorRGB
 90
        0
102
RTVSPost2010PropOp41
 70
     1
102
RTVSPost2010Prop42
 90
       50
102
RTVSPost2010PropOp42
 70
     1
102
RTVSPost2010Prop43
 90
        3
102
RTVSPost2010PropOp43
 70
     1
102
RTVSPost2010Prop44ColorIndex
 90
        5
102
RTVSPost2010Prop44ColorRGB
 90
      255
102
RTVSPost2010PropOp44
 70
     1
102
RTVSPost2010Prop45
280
     0
102
RTVSPost2010PropOp45
 70
     1
102
RTVSPost2010Prop46
 90
       50
102
RTVSPost2010PropOp46
 70
     1
102
RTVSPost2010Prop47
 90
       50
102
RTVSPost2010PropOp47
 70
     1
102
RTVSPost2010Prop48
 90
       50
102
RTVSPost2010PropOp48
 70
     1
102
RTVSPost2010Prop49
280
     0
102
RTVSPost2010PropOp49
 70
     1
102
RTVSPost2010Prop50
 90
       50
102
RTVSPost2010PropOp50
 70
     1
102
RTVSPost2010Prop51ColorIndex
 90
      256
102
RTVSPost2010Prop51ColorRGB
 90
-16777216
102
RTVSPost2010PropOp51
 70
     0
102
RTVSPost2010Prop52
140
1.0
102
RTVSPost2010PropOp52
 70
     0
102
RTVSPost2010Prop53
 90
        2
102
RTVSPost2010PropOp53
 70
     1
102
RTVSPost2010Prop54
  1
strokes_ogs.tif
102
RTVSPost2010PropOp54
 70
     1
102
RTVSPost2010Prop55
280
     0
102
RTVSPost2010PropOp55
 70
     1
102
RTVSPost2010Prop56
140
1.0
102
RTVSPost2010PropOp56
 70
     1
102
RTVSPost2010Prop57
140
1.0
102
RTVSPost2010PropOp57
 70
     1
  0
XRECORD
  5
12A
102
{ACAD_REACTORS
330
129
102
}
330
129
100
AcDbXrecord
280
     1
102
RTVSPost2010Prop28
280
     0
102
RTVSPost2010PropOp28
 70
     1
102
RTVSPost2010Prop29
280
     1
102
RTVSPost2010PropOp29
 70
     1
102
RTVSPost2010Prop30
280
     1
102
RTVSPost2010PropOp30
 70
     1
102
RTVSPost2010Prop31
280
     0
102
RTVSPost2010PropOp31
 70
     1
102
RTVSPost2010Prop32
280
     0
102
RTVSPost2010PropOp32
 70
     1
102
RTVSPost2010Prop33
280
     0
102
RTVSPost2010PropOp33
 70
     1
102
RTVSPost2010Prop34
280
     0
102
RTVSPost2010PropOp34
 70
     1
102
RTVSPost2010Prop35
280
     0
102
RTVSPost2010PropOp35
 70
     1
102
RTVSPost2010Prop36
280
     0
102
RTVSPost2010PropOp36
 70
     1
102
RTVSPost2010Prop37
 90
       50
102
RTVSPost2010PropOp37
 70
     1
102
RTVSPost2010Prop38
140
0.0
102
RTVSPost2010PropOp38
 70
     1
102
RTVSPost2010Prop39
140
1.0
102
RTVSPost2010PropOp39
 70
     1
102
RTVSPost2010Prop40
 90
        0
102
RTVSPost2010PropOp40
 70
     1
102
RTVSPost2010Prop41ColorIndex
 90
       18
102
RTVSPost2010Prop41ColorRGB
 90
        0
102
RTVSPost2010PropOp41
 70
     1
102
RTVSPost2010Prop42
 90
       50
102
RTVSPost2010PropOp42
 70
     1
102
RTVSPost2010Prop43
 90
        3
102
RTVSPost2010PropOp43
 70
     1
102
RTVSPost2010Prop44ColorIndex
 90
        5
102
RTVSPost2010Prop44ColorRGB
 90
      255
102
RTVSPost2010PropOp44
 70
     1
102
RTVSPost2010Prop45
280
     0
102
RTVSPost2010PropOp45
 70
     1
102
RTVSPost2010Prop46
 90
       50
102
RTVSPost2010PropOp46
 70
     1
102
RTVSPost2010Prop47
 90
       50
102
RTVSPost2010PropOp47
 70
     1
102
RTVSPost2010Prop48
 90
       50
102
RTVSPost2010PropOp48
 70
     1
102
RTVSPost2010Prop49
280
     0
102
RTVSPost2010PropOp49
 70
     1
102
RTVSPost2010Prop50
 90
       50
102
RTVSPost2010PropOp50
 70
     1
102
RTVSPost2010Prop51ColorIndex
 90
      256
102
RTVSPost2010Prop51ColorRGB
 90
-16777216
102
RTVSPost2010PropOp51
 70
     0
102
RTVSPost2010Prop52
140
1.0
102
RTVSPost2010PropOp52
 70
     0
102
RTVSPost2010Prop53
 90
        2
102
RTVSPost2010PropOp53
 70
     1
102
RTVSPost2010Prop54
  1
strokes_ogs.tif
102
RTVSPost2010PropOp54
 70
     1
102
RTVSPost2010Prop55
280
     0
102
RTVSPost2010PropOp55
 70
     1
102
RTVSPost2010Prop56
140
1.0
102
RTVSPost2010PropOp56
 70
     1
102
RTVSPost2010Prop57
140
1.0
102
RTVSPost2010PropOp57
 70
     1
  0
XRECORD
  5
120
102
{ACAD_REACTORS
330
11F
102
}
330
11F
100
AcDbXrecord
280
     1
102
RTVSPost2010Prop28
280
     0
102
RTVSPost2010PropOp28
 70
     1
102
RTVSPost2010Prop29
280
     1
102
RTVSPost2010PropOp29
 70
     1
102
RTVSPost2010Prop30
280
     1
102
RTVSPost2010PropOp30
 70
     1
102
RTVSPost2010Prop31
280
     0
102
RTVSPost2010PropOp31
 70
     1
102
RTVSPost2010Prop32
280
     0
102
RTVSPost2010PropOp32
 70
     1
102
RTVSPost2010Prop33
280
     0
102
RTVSPost2010PropOp33
 70
     1
102
RTVSPost2010Prop34
280
     0
102
RTVSPost2010PropOp34
 70
     1
102
RTVSPost2010Prop35
280
     0
102
RTVSPost2010PropOp35
 70
     1
102
RTVSPost2010Prop36
280
     0
102
RTVSPost2010PropOp36
 70
     1
102
RTVSPost2010Prop37
 90
       50
102
RTVSPost2010PropOp37
 70
     1
102
RTVSPost2010Prop38
140
0.0
102
RTVSPost2010PropOp38
 70
     1
102
RTVSPost2010Prop39
140
1.0
102
RTVSPost2010PropOp39
 70
     1
102
RTVSPost2010Prop40
 90
        0
102
RTVSPost2010PropOp40
 70
     1
102
RTVSPost2010Prop41ColorIndex
 90
       18
102
RTVSPost2010Prop41ColorRGB
 90
        0
102
RTVSPost2010PropOp41
 70
     1
102
RTVSPost2010Prop42
 90
       50
102
RTVSPost2010PropOp42
 70
     1
102
RTVSPost2010Prop43
 90
        3
102
RTVSPost2010PropOp43
 70
     1
102
RTVSPost2010Prop44ColorIndex
 90
        5
102
RTVSPost2010Prop44ColorRGB
 90
      255
102
RTVSPost2010PropOp44
 70
     1
102
RTVSPost2010Prop45
280
     0
102
RTVSPost2010PropOp45
 70
     1
102
RTVSPost2010Prop46
 90
       50
102
RTVSPost2010PropOp46
 70
     1
102
RTVSPost2010Prop47
 90
       50
102
RTVSPost2010PropOp47
 70
     1
102
RTVSPost2010Prop48
 90
       50
102
RTVSPost2010PropOp48
 70
     1
102
RTVSPost2010Prop49
280
     0
102
RTVSPost2010PropOp49
 70
     1
102
RTVSPost2010Prop50
 90
       50
102
RTVSPost2010PropOp50
 70
     1
102
RTVSPost2010Prop51ColorIndex
 90
      256
102
RTVSPost2010Prop51ColorRGB
 90
-16777216
102
RTVSPost2010PropOp51
 70
     0
102
RTVSPost2010Prop52
140
1.0
102
RTVSPost2010PropOp52
 70
     0
102
RTVSPost2010Prop53
 90
        2
102
RTVSPost2010PropOp53
 70
     1
102
RTVSPost2010Prop54
  1
strokes_ogs.tif
102
RTVSPost2010PropOp54
 70
     1
102
RTVSPost2010Prop55
280
     0
102
RTVSPost2010PropOp55
 70
     1
102
RTVSPost2010Prop56
140
1.0
102
RTVSPost2010PropOp56
 70
     1
102
RTVSPost2010Prop57
140
1.0
102
RTVSPost2010PropOp57
 70
     1
  0
XRECORD
  5
114
102
{ACAD_REACTORS
330
113
102
}
330
113
100
AcDbXrecord
280
     1
102
RTVSPost2010Prop28
280
     0
102
RTVSPost2010PropOp28
 70
     1
102
RTVSPost2010Prop29
280
     1
102
RTVSPost2010PropOp29
 70
     1
102
RTVSPost2010Prop30
280
     1
102
RTVSPost2010PropOp30
 70
     1
102
RTVSPost2010Prop31
280
     0
102
RTVSPost2010PropOp31
 70
     1
102
RTVSPost2010Prop32
280
     0
102
RTVSPost2010PropOp32
 70
     1
102
RTVSPost2010Prop33
280
     0
102
RTVSPost2010PropOp33
 70
     1
102
RTVSPost2010Prop34
280
     0
102
RTVSPost2010PropOp34
 70
     1
102
RTVSPost2010Prop35
280
     0
102
RTVSPost2010PropOp35
 70
     1
102
RTVSPost2010Prop36
280
     0
102
RTVSPost2010PropOp36
 70
     1
102
RTVSPost2010Prop37
 90
       50
102
RTVSPost2010PropOp37
 70
     1
102
RTVSPost2010Prop38
140
0.0
102
RTVSPost2010PropOp38
 70
     1
102
RTVSPost2010Prop39
140
1.0
102
RTVSPost2010PropOp39
 70
     1
102
RTVSPost2010Prop40
 90
        0
102
RTVSPost2010PropOp40
 70
     1
102
RTVSPost2010Prop41ColorIndex
 90
       18
102
RTVSPost2010Prop41ColorRGB
 90
        0
102
RTVSPost2010PropOp41
 70
     1
102
RTVSPost2010Prop42
 90
       50
102
RTVSPost2010PropOp42
 70
     1
102
RTVSPost2010Prop43
 90
        3
102
RTVSPost2010PropOp43
 70
     1
102
RTVSPost2010Prop44ColorIndex
 90
        5
102
RTVSPost2010Prop44ColorRGB
 90
      255
102
RTVSPost2010PropOp44
 70
     1
102
RTVSPost2010Prop45
280
     0
102
RTVSPost2010PropOp45
 70
     1
102
RTVSPost2010Prop46
 90
       50
102
RTVSPost2010PropOp46
 70
     1
102
RTVSPost2010Prop47
 90
       50
102
RTVSPost2010PropOp47
 70
     1
102
RTVSPost2010Prop48
 90
       50
102
RTVSPost2010PropOp48
 70
     1
102
RTVSPost2010Prop49
280
     0
102
RTVSPost2010PropOp49
 70
     1
102
RTVSPost2010Prop50
 90
       50
102
RTVSPost2010PropOp50
 70
     1
102
RTVSPost2010Prop51ColorIndex
 90
      256
102
RTVSPost2010Prop51ColorRGB
 90
-16777216
102
RTVSPost2010PropOp51
 70
     0
102
RTVSPost2010Prop52
140
1.0
102
RTVSPost2010PropOp52
 70
     0
102
RTVSPost2010Prop53
 90
        2
102
RTVSPost2010PropOp53
 70
     1
102
RTVSPost2010Prop54
  1
strokes_ogs.tif
102
RTVSPost2010PropOp54
 70
     1
102
RTVSPost2010Prop55
280
     0
102
RTVSPost2010PropOp55
 70
     1
102
RTVSPost2010Prop56
140
1.0
102
RTVSPost2010PropOp56
 70
     1
102
RTVSPost2010Prop57
140
1.0
102
RTVSPost2010PropOp57
 70
     1
  0
XRECORD
  5
12C
102
{ACAD_REACTORS
330
12B
102
}
330
12B
100
AcDbXrecord
280
     1
102
RTVSPost2010Prop28
280
     0
102
RTVSPost2010PropOp28
 70
     1
102
RTVSPost2010Prop29
280
     1
102
RTVSPost2010PropOp29
 70
     1
102
RTVSPost2010Prop30
280
     1
102
RTVSPost2010PropOp30
 70
     1
102
RTVSPost2010Prop31
280
     0
102
RTVSPost2010PropOp31
 70
     1
102
RTVSPost2010Prop32
280
     0
102
RTVSPost2010PropOp32
 70
     1
102
RTVSPost2010Prop33
280
     0
102
RTVSPost2010PropOp33
 70
     1
102
RTVSPost2010Prop34
280
     0
102
RTVSPost2010PropOp34
 70
     1
102
RTVSPost2010Prop35
280
     0
102
RTVSPost2010PropOp35
 70
     1
102
RTVSPost2010Prop36
280
     0
102
RTVSPost2010PropOp36
 70
     1
102
RTVSPost2010Prop37
 90
       50
102
RTVSPost2010PropOp37
 70
     1
102
RTVSPost2010Prop38
140
0.0
102
RTVSPost2010PropOp38
 70
     1
102
RTVSPost2010Prop39
140
1.0
102
RTVSPost2010PropOp39
 70
     1
102
RTVSPost2010Prop40
 90
        0
102
RTVSPost2010PropOp40
 70
     1
102
RTVSPost2010Prop41ColorIndex
 90
       18
102
RTVSPost2010Prop41ColorRGB
 90
        0
102
RTVSPost2010PropOp41
 70
     1
102
RTVSPost2010Prop42
 90
       50
102
RTVSPost2010PropOp42
 70
     1
102
RTVSPost2010Prop43
 90
        3
102
RTVSPost2010PropOp43
 70
     1
102
RTVSPost2010Prop44ColorIndex
 90
        5
102
RTVSPost2010Prop44ColorRGB
 90
      255
102
RTVSPost2010PropOp44
 70
     1
102
RTVSPost2010Prop45
280
     0
102
RTVSPost2010PropOp45
 70
     1
102
RTVSPost2010Prop46
 90
       50
102
RTVSPost2010PropOp46
 70
     1
102
RTVSPost2010Prop47
 90
       50
102
RTVSPost2010PropOp47
 70
     1
102
RTVSPost2010Prop48
 90
       50
102
RTVSPost2010PropOp48
 70
     1
102
RTVSPost2010Prop49
280
     0
102
RTVSPost2010PropOp49
 70
     1
102
RTVSPost2010Prop50
 90
       50
102
RTVSPost2010PropOp50
 70
     1
102
RTVSPost2010Prop51ColorIndex
 90
      256
102
RTVSPost2010Prop51ColorRGB
 90
-16777216
102
RTVSPost2010PropOp51
 70
     0
102
RTVSPost2010Prop52
140
1.0
102
RTVSPost2010PropOp52
 70
     0
102
RTVSPost2010Prop53
 90
        2
102
RTVSPost2010PropOp53
 70
     1
102
RTVSPost2010Prop54
  1
strokes_ogs.tif
102
RTVSPost2010PropOp54
 70
     1
102
RTVSPost2010Prop55
280
     0
102
RTVSPost2010PropOp55
 70
     1
102
RTVSPost2010Prop56
140
1.0
102
RTVSPost2010PropOp56
 70
     1
102
RTVSPost2010Prop57
140
1.0
102
RTVSPost2010PropOp57
 70
     1
  0
ENDSEC
  0
EOF
